Song name
# A B C D E F G H I J K L M N O P Q R S T U V W X Y Z

Slayer - South Of Heaven tab

Help us improve GuitareTab! Take a short survey!
#----------------------------------PLEASE NOTE---------------------------------#
#This file is the author's own work and represents their interpretation of the #
#song. You may only use this file for private study, scholarship, or research. #
#------------------------------------------------------------------------------#

SOUTH OF HEAVEN
As recorded by Slayer
(From the 1986 Album SOUTH OF HEAVEN)

Transcribed by Austin Mills
	

Words and Music by Tom Araya and jeff Hanneman
Arranged by Jeff Perrin

E5
0 2 x x x x
	
G/B
x 2 5 x x x
	
F5
1 3 x x x x
	
F5VIII
x 8 10 x x x

G5
3 5 x x x x
	
C5/G
3 3 5 x x x
	
Bb5
x 1 3 x x x
	
G#5
4 6 x x x x

F#5
2 4 x x x x

Gtr I (Eb Ab Db Gb Bb Eb) - 'w/dist'
Gtr II (Eb Ab Db Gb Bb Eb) - 'w/dist'
Gtr III (Eb Ab Db Gb Bb Eb) - 'w/dist'
Gtr IV (Eb Ab Db Gb Bb Eb) - 'w/dist'

   Intro/Half-time Feel
    Moderate Death Metal Q=106
    N.C.(E5)
   4/4
    Gtr I
             ~                     ~~
    E E E  E Q   E E   +E  E E E E Q.
||-------------------|------------------|
||o------------------|------------------|
||-----------9-----8-|-(8)---7---7-6----|
||------9-10----10---|-----9---8--------|
||o---7--------------|------------------|
||--0----------------|-(0)--------------|
|   W                  +W
|
|   Gtr II
|            ~                     ~~
|   E E E  E Q   E E   +E  E E E E Q.
||-------------------|------------------|
||o------------------|------------------|
||-------------------|------------------|
||-----------9-----8-|-(8)---7---7-8----|
||o-----9-10----10---|-----9---8--------|
||--0-7--------------|------------------|


    PM     ~
  E E E  E Q   E E   +E  E E E H
|------------------|--------------------||
|------------------|-------------------o||
|----------9-----8-|-(8)---7---6tr7-----||
|-----9-10----10---|-----7---8----------||
|---7--------------|-------------------o||
|-0----------------|-(0)----------------||
| W                  +W
|
|          ~
| E E E  E Q   E E   +E  E E E H
|------------------|--------------------||
|------------------|-------------------o||
|------------------|--------------------||
|----------9-----8-|-(8)---7---6tr7-----||
|-----9-10----10---|-----9---8---------o||
|-0-7--------------|--------------------||


  Gtr I
           ~                     ~~
  E E E  E Q   E E   +E  E E E E Q.
|------------------|-----------------------|
|------------------|-----------------------|
|----------9-----8-|-(8)---7---7-6---------|
|-----9-10----10---|-----9---8-------------|
|---7--------------|-----------------------|
|-0----------------|-(0)-------------------|
| W                  +W
|
| Gtr II
|          ~                     ~~
| E E E  E Q   E E   +E  E E E E Q.
|------------------|-----------------------|
|------------------|-----------------------|
|------------------|-----------------------|
|----------9-----8-|-(8)---7---7-8---------|
|-----9-10----10---|-----9---8-------------|
|-0-7--------------|-----------------------|
|
| Gtr III
| W                   H        Q    E   E
|------------------|-----------------------|
|------------------|------------------<12>-|
|------------------|-----------------------|
|------------------|-----------------------|
|------------------|-----------------------|
|------------------|-----------------------|


       PM     ~
    E  E E  E Q   E E    +E  E E E H
|---------------------|--------------------|
|---------------------|--------------------|
|-------------9-----8-|--(8)---7---6tr7----|
|--------9-10----10---|------7---8---------|
|------7--------------|--------------------|
|---0-----------------|--(0)---------------|
|   W                    +W
|
|             ~
|   E  E E  E Q   E E    +E  E E E H
|---------------------|--------------------|
|---------------------|--------------------|
|---------------------|--------------------|
|-------------9-----8-|--(8)---7---6tr7----|
|--------9-10----10---|------9---8---------|
|---0--7--------------|--------------------|
|
|   W                    +W
|-<12>----------------|-(12)---------------|
|---------------------|--------------------|
|---------------------|--------------------|
|---------------------|--------------------|
|---------------------|--------------------|
|---------------------|--------------------|


               ~~~~~                     ~~
   E  E E  E   Q     E E    +E   E E E E Q.
|------------------------|-----------------------|
|------------------------|-----------------------|
|--------------9-------8-|--(8)----7---7-6-------|
|-------9-10--------10---|-------9---8-----------|
|-----7------------------|-----------------------|
|--0---------------------|--(0)------------------|
|  W                        +W
|
|              ~~~~~                     ~~
|  E  E E  E   Q     E E    +E   E E E E Q.
|------------------------|-----------------------|
|------------------------|-----------------------|
|------------------------|-----------------------|
|--------------9-------8-|--(8)----7---7-8-------|
|-------9-10--------10---|-------9---8-----------|
|--0--7------------------|-----------------------|
|
|              ~~~~~
|  H          +H            +H.              Q
|------------------------|-----------------------|
|-<5>--------(<5>)-------|-(<5>)------------<5>--|
|------------------------|-----------------------|
|------------------------|-----------------------|
|------------------------|-----------------------|
|------------------------|-----------------------|


               ~~~~~
   E  E E  E   Q     E E    +E   E E E H
|------------------------|--------------------------||
|------------------------|--------------------------||
|--------------9-------8-|--(8)----7---6tr7---------||
|-------9-10--------10---|-------7---8--------------||
|-----7------------------|--------------------------||
|--0---------------------|--(0)---------------------||
|  W                        +W
|
|              ~~~~~
|  E  E E  E   Q     E E    +E   E E E H
|------------------------|--------------------------||
|------------------------|--------------------------||
|------------------------|--------------------------||
|--------------9-------8-|--(8)----7---6tr7---------||
|-------9-10--------10---|-------9---8--------------||
|--0--7------------------|--------------------------||
|
|              ~~~~~
|  H          +H            +W
|-<5>--------(<5>)-------|-(<5>)--------------------||
|------------------------|-------------------9tr10--||
|------------------------|--------------------------||
|------------------------|--------------------------||
|------------------------|--------------------------||
|------------------------|--------------------------||
                             H         Q     Q


   .
    Grad Increase temp to Q=116
    E5
             ~                     ~~
    E E E  E Q   E E   +E  E E E E Q.
||-------------------|------------------|
||o------------------|------------------|
||-----------9-----8-|-(8)---7---7-6----|
||------9-10----10---|-----9---8--------|
||o---7--------------|------------------|
||--0----------------|-(0)--------------|
|   W                  +W
|
|            ~                     ~~
|   E E E  E Q   E E   +E  E E E E Q.
||-------------------|------------------|
||o------------------|------------------|
||-------------------|------------------|
||-----------9-----8-|-(8)---7---7-8----|
||o-----7-10----10---|-----9---8--------|
||--0-7--------------|------------------|
|
|   W                  +W
||-------------------|------------------|
||o------------------|------------------|
||-------------------|------------------|
||-------------------|------------------|
||o-2----------------|-(2)--------------|
||--0----------------|-(0)--------------|


           ~
  E E E  E Q   E E   +E  E E E H
|------------------|--------------------||
|------------------|-------------------o||
|----------9-----8-|-(8)---7---6tr7-----||
|-----9-10----10---|-----7---8----------||
|---7--------------|-------------------o||
|-0----------------|-(0)----------------||
| W                  +W
|
|          ~
| E E E  E Q   E E   +E  E E E H
|------------------|--------------------||
|------------------|-------------------o||
|------------------|--------------------||
|----------9-----8-|-(8)---7---6tr7-----||
|-----7-10----10---|-----9---8---------o||
|-0-7--------------|--------------------||
|
| W                  +W
|------------------|--------------------||
|------------------|-------------------o||
|------------------|--------------------||
|------------------|--------------------||
|-2----------------|-(2)---------------o||
|-0----------------|-(0)----------------||


 Verse
  Gtr I
           ~                      ~~
  E E E  E Q    E E   +E  E E E E Q.
|-------------------|--------------------|
|-------------------|--------------------|
|----------9------8-|-(8)---7---7-6------|
|-----9-10-----10---|-----9---8----------|
|---7---------------|--------------------|
|-0-----------------|-(0)----------------|
| W                   +W
|
| Gtr II
|          ~                      ~~
| E E E  E Q    E E   +E  E E E E Q.
|-------------------|--------------------|
|-------------------|--------------------|
|-------------------|--------------------|
|----------9------8-|-(8)---7---7-8------|
|-----7-10-----10---|-----9---8----------|
|-0-7---------------|--------------------|
|
| Gtr IV
| PM--------------------------------------
| E E E  E E E  E E    E  E E E E E  E E
|-------------------|--------------------|
|-------------------|--------------------|
|-------------------|--------------------|
|-------------------|--------------------|
|-2-2-2--2-2-2--2-2-|--2--2-2-2-2-2--2-2-|
|-0-0-0--0-0-0--0-0-|--0--0-0-0-0-0--0-0-|


           ~
  E E E  E Q    E E   +E  E E E H
|-------------------|----------------------|
|-------------------|----------------------|
|----------9------8-|-(8)---7---6tr7-------|
|-----9-10-----10---|-----7---8------------|
|---7---------------|----------------------|
|-0-----------------|-(0)------------------|
| W                   +W
|
|          ~
| E E E  E Q    E E   +E  E E E H
|-------------------|----------------------|
|-------------------|----------------------|
|-------------------|----------------------|
|----------9------8-|-(8)---7---6tr7-------|
|-----7-10-----10---|-----9---8------------|
|-0-7---------------|----------------------|
|
|----------------------------------------|
| E E E  E E E  E E    E  E E E E    E E E
|-------------------|----------------------|
|-------------------|----------------------|
|-------------------|----------------------|
|-------------------|----------------------|
|-2-2-2--2-2-2--2-2-|--2--2-2-2-2----2-2-2-|
|-0-0-0--0-0-0--0-0-|--0--0-0-0-0----0-0-0-|


           ~                      ~~
  E E E  E Q    E E   +E  E E E E Q.
|-------------------|--------------------|
|-------------------|--------------------|
|----------9------8-|-(8)---7---7-6------|
|-----9-10-----10---|-----9---8----------|
|---7---------------|--------------------|
|-0-----------------|-(0)----------------|
| W                   +W
|
|          ~                      ~~
| E E E  E Q    E E   +E  E E E E Q.
|-------------------|--------------------|
|-------------------|--------------------|
|-------------------|--------------------|
|----------9------8-|-(8)---7---7-8------|
|-----7-10-----10---|-----9---8----------|
|-0-7---------------|--------------------|
|
| PM--------------------------------------
| E E E  E E E  E E    E  E E E E E  E E
|-------------------|--------------------|
|-------------------|--------------------|
|-------------------|--------------------|
|-------------------|--------------------|
|-2-2-2--2-2-2--2-2-|--2--2-2-2-2-2--2-2-|
|-0-0-0--0-0-0--0-0-|--0--0-0-0-0-0--0-0-|


           ~
  E E E  E Q    E E   +E  E E E H
|-------------------|-----------------------||
|-------------------|-----------------------||
|----------9------8-|-(8)---7---6tr7--------||
|-----9-10-----10---|-----7---8-------------||
|---7---------------|-----------------------||
|-0-----------------|-(0)-------------------||
| W                   +W
|
|          ~
| E E E  E Q    E E   +E  E E E H
|-------------------|-----------------------||
|-------------------|-----------------------||
|-------------------|-----------------------||
|----------9------8-|-(8)---7---6tr7--------||
|-----7-10-----10---|-----9---8-------------||
|-0-7---------------|-----------------------||
|
|------------------------------------|
| E E E  E E E  E E    E  E E E E    E  Q
|-------------------|-----------------------||
|-------------------|-----------------------||
|-------------------|-----------------------||
|-------------------|-----------------------||
|-2-2-2--2-2-2--2-2-|--2--2-2-2-2----2------||
|-0-0-0--0-0-0--0-0-|--0--0-0-0-0----0-13\--||


   .
    N.C.(E5)
    Gtr I
             ~                     ~~
    E E E  E Q   E E   +E  E E E E Q.
||-------------------|------------------|
||o------------------|------------------|
||-----------9-----8-|-(8)---7---7-6----|
||------9-10----10---|-----9---8--------|
||o---7--------------|------------------|
||--0----------------|-(0)--------------|
|   W                  +W
|
|   Gtr II
|            ~                     ~~
|   E E E  E Q   E E   +E  E E E E Q.
||-------------------|------------------|
||o------------------|------------------|
||-------------------|------------------|
||-----------9-----8-|-(8)---7---7-8----|
||o-----7-10----10---|-----9---8--------|
||--0-7--------------|------------------|


           ~
  E E E  E Q   E E   +E  E E E H
|------------------|--------------------||
|------------------|-------------------o||
|----------9-----8-|-(8)---7---6tr7-----||
|-----9-10----10---|-----7---8----------||
|---7--------------|-------------------o||
|-0----------------|-(0)----------------||
| W                  +W
|
|          ~
| E E E  E Q   E E   +E  E E E H
|------------------|--------------------||
|------------------|-------------------o||
|------------------|--------------------||
|----------9-----8-|-(8)---7---6tr7-----||
|-----7-10----10---|-----9---8---------o||
|-0-7--------------|--------------------||


  E5    G/E5  (BE5)         G/E5  F5
    PM|   PM|           PM|   PM----|
  E E E E E E E E    E  E E E E E E E
|-----------------|-------------------|
|-----------------|-------------------|
|-----------------|-------------------|
|-------5-----3---|---------5---------|
|-------2-2-2-2---|---------2-2-2-3-3-|
|-0-0-0---0-0---0-|--0--0-0---0-0-1-1-|
|
|                                 PM|
| W                 +H.           E E
|-----------------|-------------------|
|-----------------|-------------------|
|-----------------|-------------------|
|-----------------|-------------------|
|-2---------------|-(2)-----------3-3-|
|-0---------------|-(0)-----------1-1-|


  E5    G/E5  (Bb5)         G/E5        F5
    PM|   PM|           PM|    PM-----------|
  E E E E E E E E    E  E E E  E   E     E  E
|-----------------|---------------------------|
|-----------------|---------------------------|
|-----------------|---------------------------|
|-------5-----3---|---------5-----------------|
|-------2-2-2-2---|---------2--2---2-----3--3-|
|-0-0-0---0-0---0-|--0--0-0----0---0-----1--1-|
|
| W                 +H        +E   S  S  Q
|-----------------|---------------------------|
|-----------------|---------------------------|
|-----------------|---------------------------|
|-----------------|---------------10-10-10\---|
|-2---------------|-(2)-------(2)--8--8--8\---|
|-0---------------|-(0)-------(0)-------------|


  E5    G/E5  (BE5)         G/E5  F5     E5    G/E5  (BE5)       G/E5  F5
    PM|   PM|           PM|   PM-----|     PM|   PM|         PM|   PM----|
  E E E E E E E E    E  E E E E E  E E   E E E E E E E E   E E E E E E E E
|-----------------|--------------------|-----------------|-----------------||
|-----------------|--------------------|-----------------|-----------------||
|-----------------|--------------------|-----------------|-----------------||
|-------5-----3---|---------5----------|-------5-----3---|-------5---------||
|-------2-2-2-2---|---------2-2-2--3-3-|-------2-2-2-2---|-------2-2-2-3-3-||
|-0-0-0---0-0---0-|--0--0-0---0-0--1-1-|-0-0-0---0-0---0-|-0-0-0---0-0-1-1-||
|
|                                        PM------------------------------|
| W                 +H.            Q     E E E E E E E E   E E E E E E E E
|-----------------|--------------------|-----------------|-----------------||
|-----------------|--------------------|-----------------|-----------------||
|-----------------|--------------------|-----------------|-----------------||
|-----------------|---------------10---|-----------------|-----------------||
|-2---------------|-(2)------------8---|-2-2-2-2-2-2-2-2-|-2-2-2-2-2-2-7-7-||
|-0---------------|-(0)----------------|-0-0-0-0-0-0-0-0-|-0-0-0-0-0-0-0-0-||


   Verse
    $
    (E5)    G5(E5)F5    E5      G5E5  F5
    Gtrs I, II
    PM----------|   PM--------------|
    S S E E E E E E E   S S E E E E E Q
||--------------------|------------------|
||o-------------------|------------------|
||--------------------|------------------|
||--------------------|------------------|
||o---------5-----3---|---------5-----3--|
||--0-0-0-0-3-0-0-1-0-|-0-0-0-0-3-0-0-1--|


  (E5)    G5(E5)F5    E5      G5E5  F5
  PM----------|   PM--------------|
  S S E E E E E E E   S S E E E E E Q
|-------------------|--------------------||
|-------------------|-------------------o||
|-------------------|--------------------||
|-------------------|--------------------||
|---------5-----3---|---------5-----3---o||
|-0-0-0-0-3-0-0-1-0-|-0-0-0-0-3-0-0-1----||


 Pre-Chorus
  N.C.(F#5)                                       C5/G
  Gtr III
  ~~~~~~~~~~~~~~~~~~~~~~~~~~~~~~~~~~~~~~~~~~~~~~~~~~~~
  W                           +W
|---------------------------|------------------------|
|-7-------------------------|-(7)--------------------|
|---------------------------|------------------------|
|---------------------------|------------------------|
|---------------------------|------------------------|
|---------------------------|------------------------|
|
| Gtrs I, II
| PM--------------------------------------------------
| S S E S S E S S E S S S S    S  S E S S E S S E Q
|---------------------------|------------------------|
|---------------------------|------------------------|
|---------------------------|------------------------|
|---------------------------|---------------------5--|
|---------------------------|---------------------3--|
|-2-2-2-2-2-2-2-2-2-5-4-3-0-|--2--2-2-2-2-2-2-2-2-3--|


                                            To Coda
                                            To Coda
  N.C.(F#5)                                  Bb5
                                \1
 ~~~~~
  +H.                 E   E     W
|-----------------------------|----------------------||
|-(7)-------------------------|----------------------||
|-------------------------0---|-0--------------------||
|-----------------------------|----------------------||
|-----------------------------|----------------------||
|-----------------------------|----------------------||
|
|------------------------------------------|   PM--|
|  S  S E S S E S S E S S S S   S  S E S S E E E E E
|-----------------------------|----------------------||
|-----------------------------|----------------------||
|-----------------------------|----------------------||
|-----------------------------|--------------3-------||
|-----------------------------|--------------1-------||
|--2--2-2-2-2-2-2-2-2-5-4-3-0-|-2--2-2-2-2-2---3-2-1-||


   .
    w/half-time feel Q=124
    N.C.(E5)
    Gtr I
             ~                     ~~
    E E E  E Q   E E   +E  E E E E Q.
||-------------------|------------------|
||o------------------|------------------|
||-----------9-----8-|-(8)---7---7-6----|
||------9-10----10---|-----9---8--------|
||o---7--------------|------------------|
||--0----------------|-(0)--------------|
|   W                  +W
|
|   Gtr II
|            ~                     ~~
|   E E E  E Q   E E   +E  E E E E Q.
||-------------------|------------------|
||o------------------|------------------|
||-------------------|------------------|
||-----------9-----8-|-(8)---7---7-8----|
||o-----7-10----10---|-----9---8--------|
||--0-7--------------|------------------|


           ~
  E E E  E Q   E E   +E  E E E H
|------------------|--------------------||
|------------------|-------------------o||
|----------9-----8-|-(8)---7---6tr7-----||
|-----9-10----10---|-----7---8----------||
|---7--------------|-------------------o||
|-0----------------|-(0)----------------||
| W                  +W
|
|          ~
| E E E  E Q   E E   +E  E E E H
|------------------|--------------------||
|------------------|-------------------o||
|------------------|--------------------||
|----------9-----8-|-(8)---7---6tr7-----||
|-----7-10----10---|-----9---8---------o||
|-0-7--------------|--------------------||


                                                          D.S. al Coda
  E5     G     (Bb5) E5    G/B   F5VIII E5    G/B   (Bb5) E5    G/B   F5VIII
     PM|   PM|         PM|   PM-----|     PM|   PM|         PM|   PM------|
  E  E E E E E E E   E E E E E E  E E   E E E E E E E E   E E E E E E  E  E
|------------------|------------------|-----------------|-------------------||
|------------------|------------------|-----------------|-------------------||
|------------------|------------------|-----------------|-------------------||
|--------5-----3---|-------5----------|-------5-----3---|-------5-----------||
|--------2-2-2-2---|-------2-2-2--3-3-|-------2-2-2-2---|-------2-2-2--3--3-||
|-0--0-0---0-0---0-|-0-0-0---0-0--1-1-|-0-0-0---0-0---0-|-0-0-0---0-0--1--1-||
|
|          PM|   PM    PM|   PM|          PM|   PM|   PM    PM|   PM|
| Q.     E E E E E   E E E E E E  Q     E E E E E E E E   E E E E E E  Q
|------------------|------------------|-----------------|-------------------||
|------------------|------------------|-----------------|-------------------||
|------------------|------------------|-----------------|-------------------||
|--------5-----3---|-2-----5-----10---|-2-----5-----3---|-2-----5-----10\---||
|-2------------2---|-2-----2------8---|-2-----2-----2---|-2-2-2-2------8\---||
|-0--------0-0---0-|-0-0-0---0-0------|-0-0-0---0-0---0-|---0-0---0-0-------||


   Chorus
    &
    (E5)G#5G5        F#5       N.C.     (E5)G#5G5        F#5         N.C.
    Gtrs I, II
    PM|      PM|       PM----|          PM|      PM|       PM----|
    E E Q  E E E E   E E E E E E Q   3x E E Q  E E E E   E E E E  E  E Q
||-----------------|-----------------||----------------|-------------------||
||o----------------|----------------o||----------------|-------------------||
||-----------------|-----------1-2---||----------------|-------------1-2---||
||-----------------|-----------2-3---||----------------|-------------2-3---||
||o-----6--5-----5-|-4--------------o||-----6--5-----5-|-4-----------------||
||--0-0-4--3-0-0-3-|-2-0-0-0-0-------||-0-0-4--3-0-0-3-|-2-0-0-0--0--------||
|
|   Gtr III
|                                                        /        \1
|   W                W               3x H      Q   E E   H       +H
||-----------------|-----------------||--------------x-|-------------------||
||o----------------|----------------o||----------------|-------------------||
||-----------------|-----------------||----------------|-------------------||
||-----------------|-----------------||----------------|-------------------||
||o----------------|----------------o||----------------|-------------------||
||-----------------|-----------------||----------------|-5-------(5)-------||


 1st Guitar Solo
  N.C.(E5)                    F5      (E5)    G#5(E5)       G5
  Gtr III
                     \2
                                              ~~~~~~~~~~~~~~~~~~~~~~~~~
  Q        Q        +Q.         S S   Q       Q  +E     E     S  S  E
|-----------------------------------|---------------------------------|
|-5-------[5]-------(5)---------5p0h|=5-------5--(5)\---3---/17----15-|
|-5---------------------------------|---------------------------16----|
|-----------------------------------|---------------------------------|
|-----------------------------------|---------------------------------|
|-----------------------------------|---------------------------------|
|
| Gtrs I, II
| PM------------------------|         PM----|     PM------|
| S S S S  S  S S S  S  S S S Q       S S S S Q   S   S S S   Q
|-----------------------------------|---------------------------------|
|-----------------------------------|---------------------------------|
|-----------------------------------|---------------------------------|
|-----------------------------------|---------------------------------|
|-----------------------------3-----|---------6---------------5-------|
|-0-0-0-0--0--0-0-0--0--0-0-0-1-----|-0-0-0-0-4---0---0-0-0---3-------|


  N.C.(E5)                    F5         (E5)     G#5   (E5)        G5
 ~~~~
   H                E    S  S  +S   E.    Q        E  E  +Q.            S  S
|----------------------------------18--|-17-------17-17-(17)\---------/21-22--|
|-14---------------20---20-20-(20)-----|--------------------------------------|
|--------------------------------------|--------------------------------------|
|--------------------------------------|--------------------------------------|
|--------------------------------------|--------------------------------------|
|--------------------------------------|--------------------------------------|
|
|  PM----------------------|              PM----|         PM------|
|  S S S S S S S S  S S  S  S   Q         S S S S  Q      S   S S S Q
|--------------------------------------|--------------------------------------|
|--------------------------------------|--------------------------------------|
|--------------------------------------|--------------------------------------|
|--------------------------------------|--------------------------------------|
|-------------------------------3------|-----------6----------------5---------|
|--0-0-0-0-0-0-0-0--0-0--0--0---1------|--0-0-0-0--4------0---0-0-0-3---------|


  N.C.(E5)                           F5
               ~~~~~~~~~~~~~~~~
   Q           Q           +Q        E  S  S
|-22b24-------22b24-------(22)---------19-19-|
|------------------------------------x-------|
|------------------------------------x-------|
|--------------------------------------------|
|--------------------------------------------|
|--------------------------------------------|
|
|  PM------------------------------|
|  S    S S S  S    S S S   S  S S S Q
|--------------------------------------------|
|--------------------------------------------|
|--------------------------------------------|
|--------------------------------------------|
|------------------------------------3-------|
|--0----0-0-0--0----0-0-0---0--0-0-0-1-------|


  (E5)              G#5               (E5)           G5
   S  T  T  S  T  T  S  T  T  T  T  S  S  T  T  S  S  +Q
|-24-24-21-19-21-21-21-19-19--------------------------------|
|----------------------------22-22-21-22-17-17-19-17-(17)\--|
|-----------------------------------------------------------|
|-----------------------------------------------------------|
|-----------------------------------------------------------|
|-----------------------------------------------------------|
|
|  PM---------|                        PM---------|
|  S  S     S  S     Q                 S  S     S  S   Q
|-----------------------------------------------------------|
|-----------------------------------------------------------|
|-----------------------------------------------------------|
|-----------------------------------------------------------|
|--------------------6---------------------------------5----|
|--0--0-----0--0-----4-----------------0--0-----0--0---3----|


  N.C.(E5)                            F5
   PM------------------------|
   S  S  S  S  S  S  S  S  S  S  S  S  S  S  S  S
|----------------------------------------------12-|
|-------------------------------12-12-14-12-15----|
|-------------------12-12-14-14-------------------|
|-12-12-14-12-14-12-------------------------------|
|-------------------------------------------------|
|-------------------------------------------------|
|
|  PM------------------------------|
|  S  S  S  S  S  S  S  S  S  S  S  S  Q
|-------------------------------------------------|
|-------------------------------------------------|
|-------------------------------------------------|
|-------------------------------------------------|
|--------------------------------------3----------|
|--0--0--0--0--0--0--0--0--0--0--0--0--1----------|


  (E5)         G#5      (E5)        G5
   Q..            S      +Q           S  S  E
|-15b17==========15pb17-(15)\-------/14-17-14-|
|---------------------------------------------|
|---------------------------------------------|
|---------------------------------------------|
|---------------------------------------------|
|---------------------------------------------|
|
|  PM--------|            PM------|
|  S     S S S Q          S   S S S   Q
|---------------------------------------------|
|---------------------------------------------|
|---------------------------------------------|
|---------------------------------------------|
|--------------6----------------------5-------|
|--0-----0-0-0-4----------0---0-0-0---3-------|


  N.C.(E5)                                                    F5
   T  T  T  T  S  S  S  S  T  T  T  T  T  T  T  T  T  T  T  T  S  S  S  S
|-17-17-15-14-15-14-18-16-16-15-16-15-18-18-17-16-19-19-17-16-20-20-21-22-|
|-------------------------------------------------------------------------|
|-------------------------------------------------------------------------|
|-------------------------------------------------------------------------|
|-------------------------------------------------------------------------|
|-------------------------------------------------------------------------|
|
|  PM---------------------------------------------------|
|  S     S     S  S  S  S  S     S     S     S     S     S     Q
|-------------------------------------------------------------------------|
|-------------------------------------------------------------------------|
|-------------------------------------------------------------------------|
|-------------------------------------------------------------------------|
|--------------------------------------------------------------3----------|
|--0-----0-----0--0--0--0--0-----0-----0-----0-----0-----0-----1----------|


  (E5)        G#5(E5)        G5
   ~~~~~
   H              +Q           Q
|-22b24----------(22)\----------------|
|-------------------------------------|
|----------------------------([0])----|
|-------------------------------------|
|-------------------------------------|
|-------------------------------------|
|
|  PM-------|      PM------|
|  S    S S S Q    S   S S S   Q
|-------------------------------------|
|-------------------------------------|
|-------------------------------------|
|-------------------------------------|
|-------------6----------------5------|
|--0----0-0-0-4----0---0-0-0---3------|


                                          D.S. al Dbl. Coda
  N.C.(E5)                    F5       (E5)     G#5(E5)    G5
  \7                 /                 \1
  H                  S E.      Q       H.                  Q
|------------------------------------|------------------------||
|------------------------------------|---------------------3--||
|-2tr0p==============0h2------[2]b4--|-2----------------------||
|------------------------------------|------------------------||
|------------------------------------|------------------------||
|------------------------------------|------------------------||
|
| PM------------------------|          PM-----|    PM----|
| S    S S S S S S S S S  S S  Q       S  S S S Q  S S S S Q
|------------------------------------|------------------------||
|------------------------------------|------------------------||
|------------------------------------|------------------------||
|------------------------------------|------------------------||
|------------------------------3-----|----------6----------5--||
|-0----0-0-0-0-0-0-0-0-0--0-0--1-----|-0--0-0-0-4--0-0-0-0-3--||


   Chorus
    &&
    E5  G#5G5        F#(E5)    N.C.   E5  G#5G5        F#(E5)    N.C.
    Gtrs I, II
    PM|      PM|       PM----|        PM|      PM|       PM----|
    E E Q  E E E E   E E E E E E Q    E E Q  E E E E   E E E E E E Q
||-----------------|----------------|----------------|------------------||
||o----------------|----------------|----------------|-----------------o||
||-----------------|-----------1-2--|----------------|-----------1-2----||
||-----------------|-----------2-3--|----------------|-----------2-3----||
||o-----6--5-----5-|-4--------------|-----6--5-----5-|-4---------------o||
||--0-0-4--3-0-0-3-|-2-0-0-0-0------|-0-0-4--3-0-0-3-|-2-0-0-0-0--------||


 2nd Guitar Solo
  N.C.(E5)    G#5    G5                F#5  (E5)
  Gtr III
               ~~~~~~~~~~~~~~~~~~~~~~~~~~~~~
   Q           Q      +Q       Q        +H.                      Q
|------------------------------------|-------------------------------------|
|-15----------15-----(15)-----15-----|-(15)---------------------15\--------|
|-14b17-------14b16--(14)-----14-----|-(14)---------------------14\--------|
|------------------------------------|-------------------------------------|
|------------------------------------|-------------------------------------|
|------------------------------------|-------------------------------------|
|
| Gtrs I, II
|  PM-------|             PM-----|          PM--------------------------|
|  S    S S S  Q       E  S S  S S E     E  S S S S S S S S S S  S  S S S
|------------------------------------|-------------------------------------|
|------------------------------------|-------------------------------------|
|------------------------------------|-------------------------------------|
|------------------------------------|-------------------------------------|
|--------------6-------5-----------5-|---4---------------------------------|
|--0----0-0-0--4-------3--0-0--0-0-3-|---2--0-0-0-0-0-0-0-0-0-0--0--0-0-0--|


  N.C.(E5)              G#5               G5
   |--------6---------|  |------6-------|  |-------6--------|
   S  S    S  S  S    S  S  S  S  S  S  S  S  S  S  S  S    S  S  S  T  T  S
|----------------------------------------------------------------------------|
|----------------------------------------------------------------12-13-13-12-|
|--------------------------------------------------12-14---12-14-------------|
|--------------------------------12-13-14-12-13-14---------------------------|
|-12-13---14-12-13---14-12-13-14---------------------------------------------|
|----------------------------------------------------------------------------|
|
|  PM--------------|                                PM-----------|
|  S    S     S    S     Q                 E        S    S     S  S  E
|----------------------------------------------------------------------------|
|----------------------------------------------------------------------------|
|----------------------------------------------------------------------------|
|----------------------------------------------------------------------------|
|------------------------6-----------------5-------------------------5-------|
|--0----0-----0----0-----4-----------------3--------0----0-----0--0--3-------|


  F#5         (E5)
               |---3---|  |---3---|        |---3---|
   T  T  T  T  S  S    S  S  S    S  S  S  S  S    S  S  S  E       E
|-------12-13-12-13---12-15-14---12-----------------------------------------|
|-13-15-----------------------------15-13-12-13---12------------------------|
|----------------------------------------------------14-12-14b16r==14\------|
|---------------------------------------------------------------------------|
|---------------------------------------------------------------------------|
|---------------------------------------------------------------------------|
|
|              PM------------------------------------------------------|
|  E           S    S     S    S     S  S  S    S     S  S  S    S  S  S
|---------------------------------------------------------------------------|
|---------------------------------------------------------------------------|
|---------------------------------------------------------------------------|
|---------------------------------------------------------------------------|
|--4------------------------------------------------------------------------|
|--2-----------0----0-----0----0-----0--0--0----0-----0--0--0----0--0--0----|


  N.C.(E5)          G#5                 G5
   S  T  T  S  T  T  T  S  T  +T   S  T  +T   S  T T  T  S  S  T  T  T     T  T  T
|----------------------------------------------------------------------------------|
|-------------------------------------------------------------15-15-------15-15-15-|
|----------------------------------------------------15-17-17-------17b19----------|
|-------------------14----14-(14)-15-14-(14)-17-17---------------------------------|
|----------14-15-17----17----------------------------------------------------------|
|-14-15-17-------------------------------------------------------------------------|
|
|  PM---------|                                    PM---------|
|  S  S     S  S     Q                    E        S     S  S  S     E
|----------------------------------------------------------------------------------|
|----------------------------------------------------------------------------------|
|----------------------------------------------------------------------------------|
|----------------------------------------------------------------------------------|
|--------------------6--------------------5--------------------------5-------------|
|--0--0-----0--0-----4--------------------3--------0-----0--0--0-----3-------------|


  F#5         (E5)
   E     T  T  T  T  E       S  S  E       S  S  +S   S  S     S
|-----------------------------------------------------------------|
|-------15-15-15-15---------15-15---------15---------15-------18--|
|-17b19-------------17b19---------17b19------17-(17)----17b19-----|
|-----------------------------------------------------------------|
|-----------------------------------------------------------------|
|-----------------------------------------------------------------|
|
|        PM---------------------------------------------------|
|  E     S     S     S    S  S  S  S    S  S  S   S   S  S     S
|-----------------------------------------------------------------|
|-----------------------------------------------------------------|
|-----------------------------------------------------------------|
|-----------------------------------------------------------------|
|--4--------------------------------------------------------------|
|--2-----0-----0-----0----0--0--0--0----0--0--0---0---0--0-----0--|


  N.C.(E5)    G#5G5
   \2
   H              Q.             E
|-------------------------------------|
|-18-------------18\------------18----|
|-17b21----------17b21\---------17b21-|
|-------------------------------------|
|-------------------------------------|
|-------------------------------------|
|
|  PM-------|           PM----|
|  S    S S S Q   E     S S S S  E
|-------------------------------------|
|-------------------------------------|
|-------------------------------------|
|-------------------------------------|
|-------------6---5--------------5----|
|--0----0-0-0-4---3-----0-0-0-0--3----|


  F#5    (E5)
    \2.5
              ~~
   +Q         H                 E    S  S
|-----------------------------------13-17--|
|-(18)-------18---------------/15----------|
|-(17)-------17----------------------------|
|------------------------------------------|
|------------------------------------------|
|------------------------------------------|
|
|        PM----------------------------|
|   E    S S  S S S S S S S S   S S  S  S
|------------------------------------------|
|------------------------------------------|
|------------------------------------------|
|------------------------------------------|
|---4--------------------------------------|
|---2----0-0--0-0-0-0-0-0-0-0---0-0--0--0--|


  N.C.(E5)    G#5    G5
   Q           H            Q
|-17b20-------17b19--------17pb19-----|
|-------------------------------------|
|-------------------------------------|
|-------------------------------------|
|-------------------------------------|
|-------------------------------------|
|
|  PM-------|          PM---------|
|  S    S S S  Q     E S S  S     S E
|-------------------------------------|
|-------------------------------------|
|-------------------------------------|
|-------------------------------------|
|--------------6-----5--------------5-|
|--0----0-0-0--4-----3-0-0--0-----0-3-|


  F#5  (E5)                                                         G#5G5
                                                        ~~~~~~~
   +Q       Q            Q            S      S  S  S    H.                    S  S E
|-(17)-----17pb19-------17pb19-------17pb19r17-14-14-|-14tr17h===============17p14---|
|----------------------------------------------------|-------------------------------|
|----------------------------------------------------|-------------------------------|
|----------------------------------------------------|-------------------------------|
|----------------------------------------------------|-------------------------------|
|----------------------------------------------------|-----------------------------x-|
|
|      PM---------------------------------------------------------|      PM-----|
|   E  S S  S     S S S  S     S S S  S      S  S  S    S     S S S Q  E S S  S  S E
|----------------------------------------------------|-------------------------------|
|----------------------------------------------------|-------------------------------|
|----------------------------------------------------|-------------------------------|
|----------------------------------------------------|-------------------------------|
|---4------------------------------------------------|--------------6--5-----------5-|
|---2--0-0--0-----0-0-0--0-----0-0-0--0------0--0--0-|--0-----0-0-0-4--3-0-0--0--0-3-|


  F#5                                     E5
                                                         >
  /    \7
                                            ~~~~~~~~~~~~~~~~~
  Q   +H.             +W                    W           +W
|-------------------|-------------------|------------|-----------------*|
|-------------------|-------------------|-/15--------|-(15)------------*|
|-------------------|-------------------|------------|-----------------*|
|-------------------|-------------------|------------|-----------------*|
|-0---(0)-----------|-(0)---------------|------------|-----------------*|
|-------------------|-------------------|------------|-----------------*|
|
| PM----------------------------------|
| E E  E  E E E E E    E  E E E E E E E     W           +H      +H
|-------------------|-------------------|------------|-----------------*|
|-------------------|-------------------|------------|-----------------*|
|-------------------|-------------------|------------|-----------------*|
|-------------------|-------------------|------------|-----------------*|
|-4-4--4--4-4-4-4-4-|--4--4-4-4-4-4-4-4-|---2--------|-([2])----(2)----*|
|-2-2--2--2-2-2-2-2-|--2--2-2-2-2-2-2-2-|---0--------|-([0])----(0)----*|



Duration Legend
---------------
W - whole; H - half; Q - quarter; E - 8th; S - 16th; T - 32nd; X - 64th; a - acciaccatura
+ - note tied to previous; . - note dotted; .. - note double dotted
Uncapitalized letters represent notes that are staccato (1/2 duration)
Irregular groupings are notated above the duration line
Duration letters will always appear directly above the note/fret number it represents the
duration for.  Duration letters with no fret number below them represent rests.  Multi-
bar rests are notated in the form Wxn, where n is the number of bars to rest for.  Low
melody durations appear below the staff

Tablature Legend
----------------
 h   - hammer-on
 p   - pull-off
 b   - bend
 pb  - pre-bend
 r   - bend release (if no number after the r, then release immediately)
 /\  - slide into or out of (from/to "nowhere")
 s   - legato slide
 S   - shift slide
 - natural harmonic
[n]  - artificial harmonic
n(n) - tapped harmonic
 ~   - vibrato
 tr  - trill
 T   - tap
 TP  - trem. picking
 PM  - palm muting
\n/  - tremolo bar dip; n = amount to dip
 \n  - tremolo bar down
 n/  - tremolo bar up
/n\  - tremolo bar inverted dip
 =   - hold bend; also acts as connecting device for hammers/pulls
 <> - volume swell (louder/softer)
 x   - on rhythm slash represents muted slash
 o   - on rhythm slash represents single note slash

Misc Legend
-----------
 |  - bar
||  - double bar
||o - repeat start
o|| - repeat end
*|  - double bar (ending)
 :  - bar (freetime)
 $  - Segno
 &  - Coda
Tempo markers -  = BPM(8/16=s8/s16), where s8 = swing 8ths, s16 = swing 16ths

Related for South Of Heaven tab