Slayer - New Faith tab

Slayer - New Faith

Contact: znelson413@yahoo.com

Before I begin, let me say that I looked up the song here (http://www.ultimate-
guitar.com/tabs/s/slayer/new_faith_tab.htm) and I found some parts that did not sound correct. 

[Note: I thoroughly listened to the song]

Here is the revised version.

Standard tuning transposed down one and a half steps (low to high): 
C# F# B E G# C#

Notation:
* palm mute
~ let ring
\ slide out (or down) 
X choke


Intro (one guitar plays twice alone, then second joins)

 Part 1                        Part 2 (Verse 1)
|-----------------------------|-----------------------------|
|-----------------------------|-----------------------------|
|-----------------------------|-----------------------------|
|-----------------------------|-----------------------------|   x2
|-2-2-2-2-2-2-2-2-3----6----5-|-2-2-2-2-2-2-2-2-3----6----5-|
|-0-0-0-0-0-0-0-0-1--0-4-0--3-|-0-0-0-0-0-0-0-0-1--0-4--0-3-|
    * * * * * * *    *   *      * * * * * * * *    *    *


Play Verse 1 x4


Pre-Chorus
         x7
|---------|---------|
|o-------o|---------|
|---------|---------|
|---------|---------|   x2
|o-------o|-----0---|
|--2-4-5--|-2-4---4-|
   * * *    * * * *

Chorus
|-------------------------------------------------------------|
|-------------------------------------------------------------|
|-------------------------------------------------------------|
|-------------------------------------------------------------|   x3
|---7-6-5---7-6-5---7-6-5---7-6-5---7-6-5---7-6-5---7-6-5-3-6-|
|-0-0-0-0-0-0-0-0-0-0-0-0-0-0-0-0-0-0-0-0-0-0-0-0-0-0-0-0-1-4-|
  * * * * * * * * * * * * * * * * * * * * * * * * * * * *

|----------------------------------------------------------------------|
|----------------------------------------------------------------------|
|----------------------------------------------------------------------|
|----------------------------------------------------------------------|
|---7-6-5---7-6-5---7-6-5---7-6-5---7-6-5---7-6-5-6-6-6-6-6-6-6-6-6~\X-|
|-0-0-0-0-0-0-0-0-0-0-0-0-0-0-0-0-0-0-0-0-0-0-0-0-4-4-4-4-4-4-4-4-4~\X-|
  * * * * * * * * * * * * * * * * * * * * * * * *


Play Verse 1 x4

Play Pre-Chorus


Chorus
|-------------------------------------------------------------|
|-------------------------------------------------------------|
|-------------------------------------------------------------|
|-------------------------------------------------------------|   x3
|---7-6-5---7-6-5---7-6-5---7-6-5---7-6-5---7-6-5---7-6-5-3-6-|
|-0-0-0-0-0-0-0-0-0-0-0-0-0-0-0-0-0-0-0-0-0-0-0-0-0-0-0-0-1-4-|
  * * * * * * * * * * * * * * * * * * * * * * * * * * * *

|-----|
|-----|
|-----|
|-----|
|-----|
|-0-X-|
  *

Bridge 1
(first two times, one guitar plays, then second joins)
                                                            ___
|---------------------------------------------------------|    \
|---------------------------------------------------------|    |
|---------------------------------------------------------|    |
|---------------------------------------------------------|    |
|-5h7---------5h7-------------5h7---------5h8-------------|    |
|-----0-0-0-0-----0-0-0-0-0-0-----0-0-0-0-----0-0-0-0-0-0-|    |
      * * * *     * * * * * *     * * * *     * * * * * *      |
                                                                >  x4
|---------------------------------------------------------|    |
|---------------------------------------------------------|    |
|---------------------------------------------------------|    |
|---------------------------------------------------------|    |
|-5h7---------5h7-------------7h5---------5h7---------8~--|    |
|-----0-0-0-0-----0-0-0-0-0-0-----0-0-0-0-----0-0-0-0-6~--| ___/
      * * * *     * * * * * *     * * * *     * * * * 


Bridge 2
|--------------------------------------------|
|--------------------------------------------|
|--------------------------------------------|
|--------------------------------------------|
|-8--7---------------5--8--8--7--------------|
|-6--5--5-5-5-5-5-5--3--6--6--5--5-5-5-5-5-5-|
        * * * * * *              * * * * * *  

|--------------------------------------------------|---------|
|--------------------------------------------------|---------|
|--------------------------------------------------|---------|
|--------------------------------------------------|---------|
|-8--5--8--7---------------5--8--8--7--------------|-6--3--6-|
|-6--3--6--5--5-5-5-5-5-5--3--6--6--5--5-5-5-5-5-5-|-4--1--4-|
              * * * * * *              * * * * * *

Bridge 1 (Alt)
|---------------------------------------------------------|   
|---------------------------------------------------------|   
|---------------------------------------------------------|   
|---------------------------------------------------------|   
|-5h7---------5h7-------------5h7---------5h8-------------|   
|-----0-0-0-0-----0-0-0-0-0-0-----0-0-0-0-----0-0-0-0-0-0-|   
      * * * *     * * * * * *     * * * *     * * * * * *     
                                                              
|----------------------------------------------|   
|----------------------------------------------|   
|----------------------------------------------|   
|----------------------------------------------|   
|-5h7---------5h7-------------7h5---------5h7X-|   
|-----0-0-0-0-----0-0-0-0-0-0-----0-0-0-0----X-|
      * * * *     * * * * * *     * * * *

Bridge 1
(both guitars play)
                                                            ___
|---------------------------------------------------------|    \
|---------------------------------------------------------|    |
|---------------------------------------------------------|    |
|---------------------------------------------------------|    |
|-5h7---------5h7-------------5h7---------5h8-------------|    |
|-----0-0-0-0-----0-0-0-0-0-0-----0-0-0-0-----0-0-0-0-0-0-|    |
      * * * *     * * * * * *     * * * *     * * * * * *      |
                                                                >  x2
|---------------------------------------------------------|    |
|---------------------------------------------------------|    |
|---------------------------------------------------------|    |
|---------------------------------------------------------|    |
|-5h7---------5h7-------------7h5---------5h7---------8~--|    |
|-----0-0-0-0-----0-0-0-0-0-0-----0-0-0-0-----0-0-0-0-6~--| ___/
      * * * *     * * * * * *     * * * *     * * * * 

Bridge 2 (Alt)
|--------------------------------------------|
|--------------------------------------------|
|--------------------------------------------|
|--------------------------------------------|
|-8--7---------------5--8--8--7--------------|
|-6--5--5-5-5-5-5-5--3--6--6--5--5-5-5-5-5-5-|
        * * * * * *              * * * * * *  

|--------------------------------------------------|
|--------------------------------------------------|
|--------------------------------------------------|
|--------------------------------------------------|
|-8--5--8--7---------------5--8--8--7--------------|
|-6--3--6--5--5-5-5-5-5-5--3--6--6--5--5-5-5-5-5-5-|
              * * * * * *              * * * * * *

Outro 1
                             x4
|-----------------------------|-----------------------|
|o---------------------------o|-----------------------|
|-----------------------------|-----------------------|
|-----------------------------|-----------------------|
|o-6--3--6--5----------------o|-6--3--3--2~---3-3-3-3-|
|--4--1--4--3--0-0-0-0-0-0-0--|-4--1--1--0~---1-1-1-1-|
               * * * * * * *
Outro 2 
(one guitar plays the B flat chord)
|-----------------|----------------|
|-----------------|----------------|
|-----------------|----------------|
|-----------------|-------------3~-|   x5
|-2~--2-3-3-3-6-5-|-2~--2-3-3-3-1~-|
|-0~--0-1-1-1-4-3-|-0~--0-1-1-1----|

End on
|-----------------|-------------|
|-----------------|-------------|
|-----------------|-------------|
|-----------------|-------------|
|-2~--2-3-3-3-6-5-|-2~--2-3-3-3-|
|-0~--0-1-1-1-4-3-|-0~--0-1-1-1-|
Tap to rate this tab
 
# A B C D E F G H I J K L M N O P Q R S T U V W X Y Z