Guitaretab - guitar tabs
Song name
# A B C D E F G H I J K L M N O P Q R S T U V W X Y Z

Slayer - New Faith tab

|-----------SLAYER----NEW FAITH-----------|
|Tabbed By David - judaspissed@hotmail.com|

This was tabbed by David but I, Erik have tabbed the same thing just a little easier to 
with the timing n stuff.  But all credit should go to David along with the comments n 
 I added a couple of things that arenít originally in there. Still donít know what he does on the wah.

Intro: [00:00-00:21]        x8
E|---------------------------|
B|---------------------------|
G|---------------------------|
D|-2-2-2-2-2-2-2-2-3---6---5-|
A|-2-2-2-2-2-2-2-2-3---6---5-|
E|-0-0-0-0-0-0-0-0-1-0-4-0-3-|
PM . . . . . . . .

Riff 1 [00:21-00:29]                                x2
E|---------------------------------------------------|
B|---------------------------------------------------|
G|---------------------------------------------------|
D|---------------------------------------------------|
A|-------------------------------------------------2-|
E|-2-4-5-2-4-5-2-4-5-2-4-5-2-4-5-2-4-5-2-4-5-2-4-5---|
PM . . . . . . . . . . . . . . . . . . . . . . . . .

Chorus [00:30-00:51]                                           x3
E|--------------------------------------------------------------|
B|--------------------------------------------------------------|
G|--------------------------------------------------------------|
D|---------------------------------------------------------3-6--|
A|---7-6-5---7-6-5---7-6-5---7-6-5---7-6-5---7-6-5---7-6-5-3-6--|
E|-0-0-0-0-0-0-0-0-0-0-0-0-0-0-0-0-0-0-0-0-0-0-0-0-0-0-0-0-1-4--|

E|---------------------------------------------------------------------|
B|---------------------------------------------------------------------|
G|---------------------------------------------------------------------|
D|-------------------------------------------------6-6-6-6-6-6-6-6-6/2-|
A|---7-6-5---7-6-5---7-6-5---7-6-5---7-6-5---7-6-5-6-6-6-6-6-6-6-6-6/2-|
E|-0-0-0-0-0-0-0-0-0-0-0-0-0-0-0-0-0-0-0-0-0-0-0-0-4-4-4-4-4-4-4-4-4/0-|

Intro: [00:52-01:03]        x4
E|---------------------------|
B|---------------------------|
G|---------------------------|
D|-2-2-2-2-2-2-2-2-3---6---5-|
A|-2-2-2-2-2-2-2-2-3---6---5-|
E|-0-0-0-0-0-0-0-0-1-0-4-0-3-|
PM . . . . . . . .

Riff 1 [01:03-01:11]                                x2
E|---------------------------------------------------|
B|---------------------------------------------------|
G|---------------------------------------------------|
D|---------------------------------------------------|
A|-------------------------------------------------2-|
E|-2-4-5-2-4-5-2-4-5-2-4-5-2-4-5-2-4-5-2-4-5-2-4-5---|
PM . . . . . . . . . . . . . . . . . . . . . . . . .

Chorus [01:12-01:27]                                            x3
E|---------------------------------------------------------------|
B|---------------------------------------------------------------|
G|---------------------------------------------------------------|
D|---------------------------------------------------------3-6-2-|
A|---7-6-5---7-6-5---7-6-5---7-6-5---7-6-5---7-6-5---7-6-5-3-6-2-|
E|-0-0-0-0-0-0-0-0-0-0-0-0-0-0-0-0-0-0-0-0-0-0-0-0-0-0-0-0-1-4-0-|
[ Tab from: http://www.guitaretab.com/s/slayer/128480.html ]
Riff 2 [01:32-01:55]                 x7
E|------------------------------------|--------------------------------------|
B|------------------------------------|--------------------------------------|
G|------------------------------------|--------------------------------------|
D|------------------------------------|------------------------------------8-|
A|-5-7h---------5-7h------------------|--5-7h---------5-7h-----------------8-|
E|------0-0-0-0------0-0-0-0-0-0-0-0--|-------0-0-0-0------0-0-0-0-0-0-0-0-6-|
PM      . . . .      . . . . . . . .          . . . .      . . . . . . . .
                                     x3
E|------------------------------------|------------------------------|
B|------------------------------------|------------------------------|
G|------------------------------------|------------------------------|
D|------------------------------------|----------------------------8-|
A|-5-7h---------5-7h------------------|--5-7h---------5-7h---------8-|
E|------0-0-0-0------0-0-0-0-0-0-0-0--|-------0-0-0-0------0-0-0-0-6-|
PM      . . . .      . . . . . . . .          . . . .      . . . .
                                     x3
E|------------------------------------|------------------------------|
B|------------------------------------|------------------------------|
G|------------------------------------|------------------------------|
D|------------------------------------|----------------------------8-|
A|-5-7h---------5-7h------------------|--5-7h---------5-7h---------8-|
E|------0-0-0-0------0-0-0-0-0-0-0-0--|-------0-0-0-0------0-0-0-0-6-|
PM      . . . .      . . . . . . . .          . . . .      . . . .

Riff 3 [01:55-02:04]
E|-----------------------------------------------------------------|
B|-----------------------------------------------------------------|
G|-----------------------------------------------------------------|
D|-8-7--------5-8-8-7--------8-5-8-7--------5-8-8-7--------6-3-6-5-|
A|-8-7--------5-8-8-7--------8-5-8-7--------5-8-8-7--------6-3-6-5-|
E|-6-5-555555-3-6-6-5-555555-6-3-6-5-555555-3-6-6-5-555555-4-1-4-3-|
PM     ......         ......         ......         ......

Riff 2 [02:04-02:22]                 x3
E|------------------------------------|-----------------|
B|------------------------------------|-----------------|
G|------------------------------------|-----------------|
D|------------------------------------|-----------------|
A|-5-7h---------5-7h------------------|--5-7h---------5-|
E|------0-0-0-0------0-0-0-0-0-0-0-0--|-------0-0-0-0---|
PM      . . . .      . . . . . . . .          . . . .
                                     x3
E|------------------------------------|------------------------------|
B|------------------------------------|------------------------------|
G|------------------------------------|------------------------------|
D|------------------------------------|----------------------------8-|
A|-5-7h---------5-7h------------------|--5-7h---------5-7h---------8-|
E|------0-0-0-0------0-0-0-0-0-0-0-0--|-------0-0-0-0------0-0-0-0-6-|
PM      . . . .      . . . . . . . .          . . . .      . . . .

                                     x3
E|------------------------------------|------------------------------|
B|------------------------------------|------------------------------|
G|------------------------------------|------------------------------|
D|------------------------------------|----------------------------8-|
A|-5-7h---------5-7h------------------|--5-7h---------5-7h---------8-|
E|------0-0-0-0------0-0-0-0-0-0-0-0--|-------0-0-0-0------0-0-0-0-6-|
PM      . . . .      . . . . . . . .          . . . .      . . . .

Riff 3 [02:22-02:31]
E|---------------------------------------------------------|
B|---------------------------------------------------------|
G|---------------------------------------------------------|
D|-8-7--------5-8-8-7--------8-5-8-7--------5-8-8-7--------|
A|-8-7--------5-8-8-7--------8-5-8-7--------5-8-8-7--------|
E|-6-5-555555-3-6-6-5-555555-6-3-6-5-555555-3-6-6-5-555555-|
PM     ......         ......         ......         ......

End [02:31-03:04]            x4
E|----------------------------|-----------------------|
B|----------------------------|-----------------------|
G|----------------------------|-----------------------|
D|-6--3--6--5-----------------|--6--3--3--2---3-3-3-3-|
A|-6--3--6--5-----------------|--6--3--3--2ó--3-3-3-3-|
E|-4--1--4--3--0-0-0-0-0-0-0--|--4--1--1--0---1-1-1-1-|
PM             . . . . . . .
                               x5
E|------------------------------|--------------------------|
B|------------------------------|--------------------------|
G|------------------------------|--------------------------|
D|-2---2-3--6--5----2---2-3--8--|-2---2-3--6--5----2---2-3-|
A|-2---2-3--6--5----2---2-3--8--|-2---2-3--6--5----2---2-3-|
E|-0---0-1--4--3----0---0-1--6--|-0---0-1--4--3----0---0-1-|


PM - Palm Mute
h  - Hammer On
Related for New Faith tab