Song name
# A B C D E F G H I J K L M N O P Q R S T U V W X Y Z

Sleater-kinney - One More Hour tab

Tabbed by: GuitaristWh0


Tuning: standard

Here's the main riff that Carrie plays through the verses, though it sounds like she 
does a bit of a pull-of on the G2 to a G1. The full riff is played for each verse line. On 
the choruses, she switches to power chords.

Main Riff:
e|--------------------------------------------------------------------------|
B|--------------------------------------------------------------------------|
G|----2---2-4-2------2---2-4-2--------2---2-4-2-----2---2-4-2---------------|
D|----------------------------------0---0---------0---0---------------------|
A|--0---0----------0---0----------------------------------------------------|
E|--------------------------------------------------------------------------|

Bridge Riff:
e|--------------------------------------------------------------------------|
B|--------------------------------------------------------------------------|
G|---4--4-4---2--2-2--1--1-1------------------------------------------------|
D|----------------------------2--2-2----------------------------------------|
A|--------------------------------------------------------------------------|
E|--------------------------------------------------------------------------|


VERSE 1
In one more hour I will be gone
In one more hour I'll leave this room
The dress you wore, the pretty shoes
Are things I left behind for you

CHORUS
Oh, you've got the darkest eyes
Oh, you've got the darkest eyes

(I needed it)
I know, I know, I know
(Oh, I needed it)
It's so hard for you to let it go
(Needed it)
I know, I know, I know
(Oh, I needed it)
Never want to let it, let it go

VERSE 2
If you could talk what would you say?
For you thing were just night and day
Take off the dress, take off the face
I'll hold you close before I leave

CHORUS
Oh, you've got the darkest eyes
Oh, you've got the darkest eyes

(I needed it)
I know, I know, I know
(Oh, I needed it)
It's so hard for you to let it go
(Needed it)
I know, I know, I know
(Oh, I needed it)
Never want to let it, let it go

(I needed it)
I know, I know, I know
(Oh, I needed it)
It's so hard for you to let you to say goodbye
(Needed it)
I know, I know, I know
(Oh, I needed it)
Need a little bit with a little more time

BRIDGE
Don't say another word about the other girl
Don't say another word about the other girl

(I needed it)
I know, I know, I know
(Oh, I needed it)
It's so hard for you to let it go
(Needed it)
I know, I know, I know
(Oh, I needed it)
Never want to let it, let it go
Tap to rate this tab
# A B C D E F G H I J K L M N O P Q R S T U V W X Y Z