Sleigh Bells - Straight As tab

intro:

e -----------------------------------|
B -----------------------------------|
G -----------------------------------|
D -----------------------------------|
A -----------------------------------|
E -999999888855555/999888555555555555|

harmonising guitar over this after four plays (if you don't have a hamoniser but another 
guitarist handy)

e ----------------------------------|
B ----------------------------------|
G ----------------------------------|
D ----------------------------------|
A -88888877744444/888887774444444444|
e ----------------------------------|

Rapid alternate picking... don't lift your finger off the string as you move between notes

Heavy bit:

e ---------------------------------||
B ---------------------------------||
G ---------------------------------||
D -9-xx-8-xx-5-x-9-8-5-5-5-5-5-5-5-||x4
A -9-xx-8-xx-5-x-9-8-5-5-5-5-5-5-5-||
E -7-xx-6-xx-3-x-7-6-3-3-3-3-3-3-3-||

light fuzz:

e ---------------------------------||
B ---------------------------------||
G ---------------------------------||
D -9-xx-8-xx-5-x-9-8-5-5-5-5-5-5-5-||x2
A -9-xx-8-xx-5-x-9-8-5-5-5-5-5-5-5-||
E -7-xx-6-xx-3-x-7-6-3-3-3-3-3-3-3-||

Not a notion what effects Derek is using for this but i take it that these are the notes:

e ---------------------------------------||
B -14-13-10-/-14-13-10-10-10-10-10-10-10-||
G ---------------------------------------||
D ---------------------------------------||x2
A ---------------------------------------||
E ---------------------------------------||

Heavy Bit again, then:


e ---------------|
B ---------------|
G ---------------|
D ---------------|
A ---------------|
E -0-0-0-0-0-0-0-|

don't be afraid to give that open E a good whack when you hit it...ends on an open E and 
Derek just messing around with feedback

Ridiculous song...love it.
Tap to rate this tab
 
# A B C D E F G H I J K L M N O P Q R S T U V W X Y Z