Song name
# A B C D E F G H I J K L M N O P Q R S T U V W X Y Z

Sleipnir - Verlorene Traume tab

-------------------------------------------------------------------------------
                             VERLORENE TRAUME - Sleipnir
-------------------------------------------------------------------------------
Tabbed by: AcousticMetal99
E-mail: If you have corrections, just post them on here or message me to get corrections done.

Tuning: Standard
Should be played with delay - around 200ms?

e|----------5--7--7~~-----10-10-10--10--10--10\8\7\5~~-----------------------|
B|----7--8-------------------------------------------------------------------|
G|---------------------------------------------------------------------------|
D|---------------------------------------------------------------------------|
A|---------------------------------------------------------------------------|
E|---------------------------------------------------------------------------|

e|----10-10-10--10--10--10h12--10-10\8-8-8\7-7-7\5-5-5\3-5-3~~---------------|
B|---------------------------------------------------------------------------|
G|---------------------------------------------------------------------------|
D|---------------------------------------------------------------------------|
A|---------------------------------------------------------------------------|
E|---------------------------------------------------------------------------|

e|----------5--7--7~~-----10-10-10--10--10--10\8\7\5~~-----------------------|
B|----7--8-------------------------------------------------------------------|
G|---------------------------------------------------------------------------|
D|---------------------------------------------------------------------------|
A|---------------------------------------------------------------------------|
E|---------------------------------------------------------------------------|

e|----10-10-10--10--10--10--10--10-10\8-8-8\7-7-7\5-5-5\3-5-3~~--------------|
B|---------------------------------------------------------------------------|
G|---------------------------------------------------------------------------|
D|---------------------------------------------------------------------------|
A|---------------------------------------------------------------------------|
E|---------------------------------------------------------------------------|

e|------------------------------10-10\8-8-8\7-7-7\5-5-5\3-5-3~~--------------|
B|---------------------------------------------------------------------------|
G|---------------------------------------------------------------------------|
D|---------------------------------------------------------------------------|
A|---------------------------------------------------------------------------|
E|---------------------------------------------------------------------------|

Solo continues over chorus but I'm not sure about this part (i.e. I will tab it when I
find time), other than that it uses the same notes as the tabbed section above, and does
some bending (mainly on 10th fret on the high e string I think). Then the above part 
plays again after the chorus as an outro.


************************************

| /   slide up
| \   slide down
| h   hammer-on
| p   pull-off
| ~   vibrato
| b   Bend


************************************
Tap to rate this tab
 
# A B C D E F G H I J K L M N O P Q R S T U V W X Y Z