Guitaretab - guitar tabs
Song name
# A B C D E F G H I J K L M N O P Q R S T U V W X Y Z

Slick Shoes - Alone tab

Artist: Slick Shoes
Title:Alone
Album: Slick Shoes

Tabbed by Sean Green     (the_bunglist@yahoo.com)



INTRO

E ---------------------------------------------------------------------|
A -5-5-5-5-5-5-5-5-5-5-5-5-5-5---7-7-7-7-7-7-7-7-7-7-7-7-7-7-----------|
D -4-4-4-6-6-6-7-7-7-7-7-7-6-4---6-6-6-7-7-7-9-9-9-9-9-9-7-6-----------|
G ---------------------------------------------------------------------|
B ---------------------------------------------------------------------|
e ---------------------------------------------------------------------|

E ---------------------------------------------------------------------|
A ---------------------------------------------------------------------|
D -7-7-7-7-7-7-7-7-7-7-7-7-7-6-----------------------------------------|
G -9-9-9-7-7-7-6-6-6-7-7-7-6-4-----------------------------------------|
B ---------------------------------------------------------------------|
e ---------------------------------------------------------------------| 

E ---------------------------------------------------------------------|
A -5-5-5-5-5-5-5-5-5-5-5-5-5-5---7-7-7-7-7-7-7-7-7-7-7-7-7-7-----------|
D -4-4-4-6-6-6-7-7-7-7-7-7-6-4---6-6-6-7-7-7-9-9-9-9-9-9-7-6-----------|
G ---------------------------------------------------------------------|
B ---------------------------------------------------------------------|
e ---------------------------------------------------------------------|

E ---------------------------------------------------------------------|
A ---------------------------------------------------------------------|
D -7-7-7-6-7-6---------------------------------------------------------|
G -9-7-6-4-6-4---------------------------------------------------------|
B ---------------------------------------------------------------------|
e ---------------------------------------------------------------------|

VERSE

E ---------------------------------------------------------------------|
A ---------------------------------------------------------------------|
D -7-6-7--------7-6-9--------x4----------------------------------------|
G -------9-7-6--------9-7-6--------------------------------------------|
B ---------------------------------------------------------------------|
e ---------------------------------------------------------------------|
[ Tab from: http://www.guitaretab.com/s/slick-shoes/130014.html ]
CHORUS
(listen for the ryhthm!)
 "Alone..tonight...al..right...I..Wrong...."
E -5---------------5pm---------2---------0-----------------------------|
A -7-------7-------7---5-------4--5------2-----------------------------|
D -7-------9-------7---7-------4--7------2-----------------------------|
G ---------9-----------7----------7------------------------------------|
B ---------------------------------------------------------------------|
e ---------------------------------------------------------------------|

STRING BREAK
(Single hits on these chords!) 

E -------5-------------------------------------------------------------|
A -4--5--7--7----------------------------------------------------------|
D -7--7--7--9----------------------------------------------------------|
G -7--7-----9----------------------------------------------------------|
B ---------------------------------------------------------------------|
e ---------------------------------------------------------------------|

THE BIT AFTER THE STRINGS FINISH
(Again, listem for the rhythm!)
     "I need...how...out.....home..." 
E -------------------5-------------------x1open strings----------------|
A -4-----------5-----7-------7-------x1pm----7--9---11-(2nd guitar plays|
D -7-----------7-----7-------9--------------------------this over the--|
G -7-----------7-------------9---------------9--11--13--last bit of the|
B -----------------------------------------------------open string part)|
e ---------------------------------------------------------------------|


 ENDING CHORUS
(listen for the ryhthm!)
 "Alone..tonight...al..right...I..that..Wrong...."
E -5---------------5pm---------2--0------------------------------------|
A -7-------7-------7---5-------4--2-----5------------------------------|
D -7-------9-------7---7-------4--2-----7------------------------------|
G ---------9-----------7----------------7------------------------------|
B ---------------------------------------------------------------------|
e ---------------------------------------------------------------------|

ENDING
   "I can..in me....heart 
E --2------0-----------------------------------------------------------|
A --4------2--------5--------------------------------------------------|
D --4------2--------7--------------------------------------------------|
G ------------------7--------------------------------------------------|
B ---------------------------------------------------------------------|
e ---------------------------------------------------------------------|

This is great song. I hope this helps!!
Related for Alone tab