Guitaretab - guitar tabs
Song name
# A B C D E F G H I J K L M N O P Q R S T U V W X Y Z

Slipknot - Before I Forget tab

Artist/Band - Slipknot
Album - Vol 3: (The Subliminal Verses)
Song - Before I Forget

Tuning: Drop B (B F# B E G# C#)

Key:
h  = Hammer On
p  = Pull Off
PM = Palm Mute
/  = Slide Upwards
\  = Slide Downwards
b  = Band String
~  = Let String Ring


GUITAR 1:

Intro:
C#]--------------------------------------------------------------------------------|
G#]--------------------------------------------------------------------------------|
 E]--------------------------------------------------------------------------------|
 B]--------------------------------------------------------------------------------|
F#]--------------------------------------------------------------------------------|
 B]--0h2p0--0h2--0--3p2--0--0h2--0--0h3p2----0h2p0--0h2--0--3p2--0--0h2--0--0h3p2--|

C#]--------------------------------------------------------------------------------|
G#]--------------------------------------------------------------------------------|
 E]--------------------------------------------------------------------------------|
 B]--------------------------------------------------------------------------------|
F#]--------------------------------------------------------------------------------|
 B]--0h2p0--0h2--0--3p2--0--0h2--0--0h3p2----0h2p0--0h2--0--3p2--0--0h2--0--0h3p2--|

(Guitar 2 starts playing now)

C#]--------------------------------------------------------------------------------|
G#]--------------------------------------------------------------------------------|
 E]--------------------------------------------------------------------------------|
 B]--------------------------------------------------------------------------------|
F#]--------------------------------------------------------------------------------|
 B]--0h2p0--0h2--0--3p2--0--0h2--0--0h3p2----0h2p0--0h2--0--3p2--0--0h2--0--0h3p2--|

C#]-------------------------------------------------|
G#]-------------------------------------------------|
 E]-------------------------------------------------|
 B]------------------------5--5--5--0---5--5--5--0--|
F#]------------------0--0--5--5--5--0---5--5--5--0--|
 B]--0h2--0--0h2--0--0--0--5--5--5--0---5--5--5--0--|

"GO!"

Full Band Intro:
C#]------------------------------------------------------------------------------------|
G#]------------------------------------------------------------------------------------|
 E]------------------------------------------------------------------------------------|
 B]------------------------------------------------------------------------------------|
F#]--0h2--0--0h2--0--3p2--0--0h2--0--0h3--2----0h2--0--0h2--0--3p2--0--0h2--0--0h3--2--|
 B]--0h2--0--0h2--0--3p2--0--0h2--0--0h3--2----0h2--0--0h2--0--3p2--0--0h2--0--0h3--2--|

C#]-----------------------------------------------------------------------------|
G#]-----------------------------------------------------------------------------|
 E]-----------------------------------------------------------------------------|
 B]------------------------------------------------------------------5--5--5-0--|
F#]--0h2--0--0h2--0--3p2--0--0h2--0--0h3--2----0h2--0--0h2--0--0--0--5--5--5-0--|
 B]--0h2--0--0h2--0--3p2--0--0h2--0--0h3--2----0h2--0--0h2--0--0--0--5--5--5-0--|

C#]------------------------------------------------------------------------------------|
G#]------------------------------------------------------------------------------------|
 E]------------------------------------------------------------------------------------|
 B]------------------------------------------------------------------------------------|
F#]--0h2--0--0h2--0--3p2--0--0h2--0--0h3--2----0h2--0--0h2--0--3p2--0--0h2--0--0h3--2--|
 B]--0h2--0--0h2--0--3p2--0--0h2--0--0h3--2----0h2--0--0h2--0--3p2--0--0h2--0--0h3--2--|

C#]----------------------------------------------------------------------------------------|
G#]----------------------------------------------------------------------------------------|
 E]----------------------------------------------------------------------------------------|
 B]------------------------------------------------------------------5--5--5-0--5--5--5-0--|
F#]--0h2--0--0h2--0--3p2--0--0h2--0--0h3--2----0h2--0--0h2--0--0--0--5--5--5-0--5--5--5-0--|
 B]--0h2--0--0h2--0--3p2--0--0h2--0--0h3--2----0h2--0--0h2--0--0--0--5--5--5-0--5--5--5-0--|

Verse:
C#]---------------------------------------------|
G#]---------------------------------------------|
 E]---------------------------------------------|
 B]---------------------------------------------|
F#]--2-2-2-2-3---2-2-2-3---2-2-2-2-3---2-2-2-3--|
 B]--2-2-2-2-3---2-2-2-3---2-2-2-2-3---2-2-2-3--|
PM   . . . . .   . . . .   . . . . .   . . . .

C#]-----------------------------------------------------|
G#]-----------------------------------------------------|
 E]-----------------------------------------------------|
 B]-----------------------------------------------------|
F#]--2-2-2-2-3---2-2-2-3---2-2-2-2-3---0--0--5--5--5-0--|
 B]--2-2-2-2-3---2-2-2-3---2-2-2-2-3---0--0--5--5--5-0--|
PM   . . . . .   . . . .   . . . . .

C#]---------------------------------------------|
G#]---------------------------------------------|
 E]---------------------------------------------|
 B]---------------------------------------------|
F#]--2-2-2-2-3---2-2-2-3---2-2-2-2-3---2-2-2-3--|
 B]--2-2-2-2-3---2-2-2-3---2-2-2-2-3---2-2-2-3--|
PM   . . . . .   . . . .   . . . . .   . . . .

C#]-----------------------------------------------------|
G#]-----------------------------------------------------|
 E]-----------------------------------------------------|
 B]-----------------------------------------------------|
F#]--2-2-2-2-3---2-2-2-3---2-2-2-2-3---0--0--5--5--5-0--|
 B]--2-2-2-2-3---2-2-2-3---2-2-2-2-3---0--0--5--5--5-0--|
PM   . . . . .   . . . .   . . . . .   . . . .

C#]---------------------------------------------|
G#]---------------------------------------------|
 E]---------------------------------------------|
 B]---------------------------------------------|
F#]--2-2-2-2-3---2-2-2-3---2-2-2-2-3---2-2-2-3--|
 B]--2-2-2-2-3---2-2-2-3---2-2-2-2-3---2-2-2-3--|
PM   . . . . .   . . . .   . . . . .   . . . .

C#]-----------------------------------------------------|
G#]-----------------------------------------------------|
 E]-----------------------------------------------------|
 B]-----------------------------------------------------|
F#]--2-2-2-2-3---2-2-2-3---2-2-2-2-3---0--0--5--5--5-0--|
 B]--2-2-2-2-3---2-2-2-3---2-2-2-2-3---0--0--5--5--5-0--|
PM   . . . . .   . . . .   . . . . .   . . . .

C#]---------------------------------------------|
G#]---------------------------------------------|
 E]---------------------------------------------|
 B]---------------------------------------------|
F#]--2-2-2-2-3---2-2-2-3---2-2-2-2-3---2-2-2-3--|
 B]--2-2-2-2-3---2-2-2-3---2-2-2-2-3---2-2-2-3--|
PM   . . . . .   . . . .   . . . . .   . . . .

C#]-----------------------------------------------------|
G#]-----------------------------------------------------|
 E]-----------------------------------------------------|
 B]-----------------------------------------------------|
F#]--2-2-2-2-3---2-2-2-3---2-2-2-2-3---0--0--5--5--5-0--|
 B]--2-2-2-2-3---2-2-2-3---2-2-2-2-3---0--0--5--5--5-0--|
PM   . . . . .   . . . .   . . . . .   . . . .

Pre-Chorus:
C#]----------------15b-----------------------|
G#]-------------------------------------15b--|
 E]------------------------------------------|
 B]------------------------------------------|
F#]--2--2--3--2-----------2--2--3--2---------|
 B]--2--2--3--2-----------2--2--3--2---------|

C#]----------------15b-----------------------|
G#]-------------------------------------15b--|
 E]------------------------------------------|
 B]------------------------------------------|
F#]--2--2--3--2-----------2--2--3--2---------|
 B]--2--2--3--2-----------2--2--3--2---------|

Chorus:
C#]----------------------------------------------------------------------|
G#]----------------------------------------------------------------------|
 E]----------------------------------------------------------------------|
 B]--2----3--2--5--0--0--5--0-----------2----3--2--5--0--0--5--0---------|
F#]--2----3--2--5--0--0--5--0--7-8-7----2----3--2--5--0--0--5--0--7-8-7--|
 B]--2----3--2--5--0--0--5--0--7-8-7----2----3--2--5--0--0--5--0--7-8-7--|

C#]---------------------------------------------------------|
G#]---------------------------------------------------------|
 E]---------------------------------------------------------|
 B]--2----3--2--5--0--0--5--0----------0--0--5--5--0--8--7--|
F#]--2----3--2--5--0--0--5--0--7-8-7---0--0--5--5--0--8--7--|
 B]--2----3--2--5--0--0--5--0--7-8-7---0--0--5--5--0--8--7--|

C#]----------------------------------------------------------------------|
G#]----------------------------------------------------------------------|
 E]----------------------------------------------------------------------|
 B]--2----3--2--5--0--0--5--0-----------2----3--2--5--0--0--5--0---------|
F#]--2----3--2--5--0--0--5--0--7-8-7----2----3--2--5--0--0--5--0--7-8-7--|
 B]--2----3--2--5--0--0--5--0--7-8-7----2----3--2--5--0--0--5--0--7-8-7--|

C#]---------------------------------------------------------|
G#]---------------------------------------------------------|
 E]---------------------------------------------------------|
 B]--2----3--2--5--0--0--5--0----------0--0--5--5--0--8--7--|
F#]--2----3--2--5--0--0--5--0--7-8-7---0--0--5--5--0--8--7--|
 B]--2----3--2--5--0--0--5--0--7-8-7---0--0--5--5--0--8--7--|

Interlude:
C#]------------------------------------------------------------------------------------|
G#]------------------------------------------------------------------------------------|
 E]------------------------------------------------------------------------------------|
 B]------------------------------------------------------------------------------------|
F#]--0h2--0--0h2--0--3p2--0--0h2--0--0h3--2----0h2--0--0h2--0--3p2--0--0h2--0--0h3--2--|
 B]--0h2--0--0h2--0--3p2--0--0h2--0--0h3--2----0h2--0--0h2--0--3p2--0--0h2--0--0h3--2--|

C#]-----------------------------------------------------------------------------|
G#]-----------------------------------------------------------------------------|
 E]-----------------------------------------------------------------------------|
 B]------------------------------------------------------------------5--5--5-0--|
F#]--0h2--0--0h2--0--3p2--0--0h2--0--0h3--2----0h2--0--0h2--0--0--0--5--5--5-0--|
 B]--0h2--0--0h2--0--3p2--0--0h2--0--0h3--2----0h2--0--0h2--0--0--0--5--5--5-0--|

Verse 2:
C#]---------------------------------------------|
G#]---------------------------------------------|
 E]---------------------------------------------|
 B]---------------------------------------------|
F#]--2-2-2-2-3---2-2-2-3---2-2-2-2-3---2-2-2-3--|
 B]--2-2-2-2-3---2-2-2-3---2-2-2-2-3---2-2-2-3--|
PM   . . . . .   . . . .   . . . . .   . . . .

C#]-----------------------------------------------------|
G#]-----------------------------------------------------|
 E]-----------------------------------------------------|
 B]-----------------------------------------------------|
F#]--2-2-2-2-3---2-2-2-3---2-2-2-2-3---0--0--5--5--5-0--|
 B]--2-2-2-2-3---2-2-2-3---2-2-2-2-3---0--0--5--5--5-0--|
PM   . . . . .   . . . .   . . . . .

C#]---------------------------------------------|
G#]---------------------------------------------|
 E]---------------------------------------------|
 B]---------------------------------------------|
F#]--2-2-2-2-3---2-2-2-3---2-2-2-2-3---2-2-2-3--|
 B]--2-2-2-2-3---2-2-2-3---2-2-2-2-3---2-2-2-3--|
PM   . . . . .   . . . .   . . . . .   . . . .

C#]-----------------------------------------------------|
G#]-----------------------------------------------------|
 E]-----------------------------------------------------|
 B]-----------------------------------------------------|
F#]--2-2-2-2-3---2-2-2-3---2-2-2-2-3---0--0--5--5--5-0--|
 B]--2-2-2-2-3---2-2-2-3---2-2-2-2-3---0--0--5--5--5-0--|
PM   . . . . .   . . . .   . . . . .   . . . .

Pre-Chorus:
C#]----------------15b-----------------------|
G#]-------------------------------------15b--|
 E]------------------------------------------|
 B]------------------------------------------|
F#]--2--2--3--2-----------2--2--3--2---------|
 B]--2--2--3--2-----------2--2--3--2---------|

C#]----------------15b-----------------------|
G#]-------------------------------------15b--|
 E]------------------------------------------|
 B]------------------------------------------|
F#]--2--2--3--2-----------2--2--3--2---------|
 B]--2--2--3--2-----------2--2--3--2---------|

Chorus:
C#]----------------------------------------------------------------------|
G#]----------------------------------------------------------------------|
 E]----------------------------------------------------------------------|
 B]--2----3--2--5--0--0--5--0-----------2----3--2--5--0--0--5--0---------|
F#]--2----3--2--5--0--0--5--0--7-8-7----2----3--2--5--0--0--5--0--7-8-7--|
 B]--2----3--2--5--0--0--5--0--7-8-7----2----3--2--5--0--0--5--0--7-8-7--|

C#]---------------------------------------------------------|
G#]---------------------------------------------------------|
 E]---------------------------------------------------------|
 B]--2----3--2--5--0--0--5--0----------0--0--5--5--0--8--7--|
F#]--2----3--2--5--0--0--5--0--7-8-7---0--0--5--5--0--8--7--|
 B]--2----3--2--5--0--0--5--0--7-8-7---0--0--5--5--0--8--7--|

C#]----------------------------------------------------------------------|
G#]----------------------------------------------------------------------|
 E]----------------------------------------------------------------------|
 B]--2----3--2--5--0--0--5--0-----------2----3--2--5--0--0--5--0---------|
F#]--2----3--2--5--0--0--5--0--7-8-7----2----3--2--5--0--0--5--0--7-8-7--|
 B]--2----3--2--5--0--0--5--0--7-8-7----2----3--2--5--0--0--5--0--7-8-7--|

C#]---------------------------------------------------------|
G#]---------------------------------------------------------|
 E]---------------------------------------------------------|
 B]--2----3--2--5--0--0--5--0----------0--0--5--5--0--8--7--|
F#]--2----3--2--5--0--0--5--0--7-8-7---0--0--5--5--0--8--7--|
 B]--2----3--2--5--0--0--5--0--7-8-7---0--0--5--5--0--8--7--|

Solo:
C#]---------------------------------------------------------------|
G#]---------------------------------------------------------------|
 E]---------------------------------------------------------------|
 B]--5-5-5-5-5-5-5-4--5-5-5-5-5-5-4--5-5-5-5-5-5-5--5-5-4--5-5-4--|
F#]---------------------------------------------------------------|
 B]---------------------------------------------------------------|

C#]---------------------------------------------------------------|
G#]---------------------------------------------------------------|
 E]---------------------------------------------------------------|
 B]--5-5-5-5-5-5-5-4--5-5-5-5-5-5-4--5-5-5-5-5-5-5--5-5-4--5-5-4--|
F#]---------------------------------------------------------------|
 B]---------------------------------------------------------------|

C#]-----------------------------------------------------------------------------|
G#]-----------------------------------------------------------------------------|
 E]-----------------------------------------------------------------------------|
 B]--5-5-4--5-5-/12--10-10-9-9-7-7-/10--9-9-7-7-5-5-5-9-7-7-5-4-/7--5-4--5-5-4--|
F#]-----------------------------------------------------------------------------|
 B]-----------------------------------------------------------------------------|

C#]-----------------------------------------------------------------|
G#]-----------------------------------------------------------------|
 E]-----------------------------------------------------------------|
 B]--5-5-5-5-5-5-4--5-5-5-5-5-5-4--5-5-5-5-5-5-/7--5-5-/9--7--7-----|
F#]--------------------------------------------------------------7--|
 B]-----------------------------------------------------------------|

Bridge:
C#]-----------------------------------------------------|
G#]-----------------------------------------------------|
 E]-----------------------------------------------------|
 B]-----------------------------------------------------|
F#]-----------------------------------------------------|
 B]--7--7p9--7p9--10b--9b--7p9---7p9--7p9--10b--9b-7p9--|

C#]--------------------------------------------------|
G#]--------------------------------------------------|
 E]--------------------------------------------------|
 B]--------------------------------------------------|
F#]--------------------------------------------------|
 B]--7p9--7p9--10b--9b--7p9---7p9--7p9--10b--9b-7p9--|

C#]--------------------------------------------------|
G#]--------------------------------------------------|
 E]--------------------------------------------------|
 B]--------------------------------------------------|
F#]--------------------------------------------------|
 B]--7p9--7p9--10b--9b--7p9---7p9--7p9--10b--9b-7p9--|

C#]--------------------------------------------------|
G#]--------------------------------------------------|
 E]--------------------------------------------------|
 B]--------------------------------------------------|
F#]--------------------------------------------------|
 B]--7p9--7p9--10b--9b--7p9---7p9--7p9--10b--9b-7p9--|

C#]--------------------------------------------------|
G#]--------------------------------------------------|
 E]--------------------------------------------------|
 B]--------------------------------------------------|
F#]--------------------------------------------------|
 B]--7p9--7p9--10b--9b--7p9---7p9--7p9--10b--9b-7p9--|

C#]--------------------------------------------------|
G#]--------------------------------------------------|
 E]--------------------------------------------------|
 B]--------------------------------------------------|
F#]--------------------------------------------------|
 B]--7p9--7p9--10b--9b--7p9---7p9--7p9--10b--9b-7p9--|

C#]-------------------------------------------------|
G#]-------------------------------------------------|
 E]-------------------------------------------------|
 B]-------------------------------------------------|
F#]-------------------------------------------------|
 B]--9h10--9h10--9h10--9-/12--10--9h10--9h10--9h10--|

C#]-----------------------------------------------------|
G#]-----------------------------------------------------|
 E]-----------------------------------------------------|
 B]-----------------------------------------------------|
F#]-----------------------------------------------------|
 B]--9h10--9h10--/12p10--9h10--9h10--9h10-/12p10--9h10--|

Chorus:
C#]----------------------------------------------------------------------|
G#]----------------------------------------------------------------------|
 E]----------------------------------------------------------------------|
 B]--2----3--2--5--0--0--5--0-----------2----3--2--5--0--0--5--0---------|
F#]--2----3--2--5--0--0--5--0--7-8-7----2----3--2--5--0--0--5--0--7-8-7--|
 B]--2----3--2--5--0--0--5--0--7-8-7----2----3--2--5--0--0--5--0--7-8-7--|

C#]---------------------------------------------------------|
G#]---------------------------------------------------------|
 E]---------------------------------------------------------|
 B]--2----3--2--5--0--0--5--0----------0--0--5--5--0--8--7--|
F#]--2----3--2--5--0--0--5--0--7-8-7---0--0--5--5--0--8--7--|
 B]--2----3--2--5--0--0--5--0--7-8-7---0--0--5--5--0--8--7--|

C#]----------------------------------------------------------------------|
G#]----------------------------------------------------------------------|
 E]----------------------------------------------------------------------|
 B]--2----3--2--5--0--0--5--0-----------2----3--2--5--0--0--5--0---------|
F#]--2----3--2--5--0--0--5--0--7-8-7----2----3--2--5--0--0--5--0--7-8-7--|
 B]--2----3--2--5--0--0--5--0--7-8-7----2----3--2--5--0--0--5--0--7-8-7--|

C#]---------------------------------------------------------|
G#]---------------------------------------------------------|
 E]---------------------------------------------------------|
 B]--2----3--2--5--0--0--5--0----------0--0--5--5--0--8--7--|
F#]--2----3--2--5--0--0--5--0--7-8-7---0--0--5--5--0--8--7--|
 B]--2----3--2--5--0--0--5--0--7-8-7---0--0--5--5--0--8--7--|

C#]----------------------------------------------------------------------|
G#]----------------------------------------------------------------------|
 E]----------------------------------------------------------------------|
 B]--2----3--2--5--0--0--5--0-----------2----3--2--5--0--0--5--0---------|
F#]--2----3--2--5--0--0--5--0--7-8-7----2----3--2--5--0--0--5--0--7-8-7--|
 B]--2----3--2--5--0--0--5--0--7-8-7----2----3--2--5--0--0--5--0--7-8-7--|

C#]---------------------------------------------------------|
G#]---------------------------------------------------------|
 E]---------------------------------------------------------|
 B]--2----3--2--5--0--0--5--0----------0--0--5--5--0--8--7--|
F#]--2----3--2--5--0--0--5--0--7-8-7---0--0--5--5--0--8--7--|
 B]--2----3--2--5--0--0--5--0--7-8-7---0--0--5--5--0--8--7--|
[ Tab from: http://www.guitaretab.com/s/slipknot/50022.html ]
Outro:
C#]------------------------------------------------------------------------------------|
G#]------------------------------------------------------------------------------------|
 E]------------------------------------------------------------------------------------|
 B]------------------------------------------------------------------------------------|
F#]--0h2--0--0h2--0--3p2--0--0h2--0--0h3--2----0h2--0--0h2--0--3p2--0--0h2--0--0h3--2--|
 B]--0h2--0--0h2--0--3p2--0--0h2--0--0h3--2----0h2--0--0h2--0--3p2--0--0h2--0--0h3--2--|

C#]------------------------------------------------------------------------------------|
G#]------------------------------------------------------------------------------------|
 E]------------------------------------------------------------------------------------|
 B]------------------------------------------------------------------------------------|
F#]--0h2--0--0h2--0--3p2--0--0h2--0--0h3--2----0h2--0--0h2--0--3p2--0--0h2--0--0h3--2--|
 B]--0h2--0--0h2--0--3p2--0--0h2--0--0h3--2----0h2--0--0h2--0--3p2--0--0h2--0--0h3--2--|

C#]------------------------------------------------------------------------------------|
G#]------------------------------------------------------------------------------------|
 E]------------------------------------------------------------------------------------|
 B]------------------------------------------------------------------------------------|
F#]--0h2--0--0h2--0--3p2--0--0h2--0--0h3--2----0h2--0--0h2--0--3p2--0--0h2--0--0h3--2--|
 B]--0h2--0--0h2--0--3p2--0--0h2--0--0h3--2----0h2--0--0h2--0--3p2--0--0h2--0--0h3--2--|

C#]-----------------------------------------------------------------------------|
G#]-----------------------------------------------------------------------------|
 E]-----------------------------------------------------------------------------|
 B]------------------------------------------------------------------5--5--5-0--|
F#]--0h2--0--0h2--0--3p2--0--0h2--0--0h3--2----0h2--0--0h2--0--0--0--5--5--5-0--|
 B]--0h2--0--0h2--0--3p2--0--0h2--0--0h3--2----0h2--0--0h2--0--0--0--5--5--5-0--|


GUITAR 2:

Intro:
(Guitar 1 plays the Intro for a while, then Guitar 2 plays...)
C#]--------------------------------------------------------------------------------|
G#]--------------------------------------------------------------------------------|
 E]--------------------------------------------------------------------------------|
 B]--------------------------------------------------------------------------------|
F#]--------------------------------------------------------------------------------|
 B]--0h2p0--0h2--0--3p2--0--0h2--0--0h3p2----0h2p0--0h2--0--3p2--0--0h2--0--0h3p2--|

C#]-------------------------------------------------|
G#]-------------------------------------------------|
 E]-------------------------------------------------|
 B]------------------------5--5--5--0---5--5--5--0--|
F#]------------------0--0--5--5--5--0---5--5--5--0--|
 B]--0h2--0--0h2--0--0--0--5--5--5--0---5--5--5--0--|

Full Band Intro:
C#]------------------------------------------------------------------------------------|
G#]------------------------------------------------------------------------------------|
 E]------------------------------------------------------------------------------------|
 B]------------------------------------------------------------------------------------|
F#]--0h2--0--0h2--0--3p2--0--0h2--0--0h3--2----0h2--0--0h2--0--3p2--0--0h2--0--0h3--2--|
 B]--0h2--0--0h2--0--3p2--0--0h2--0--0h3--2----0h2--0--0h2--0--3p2--0--0h2--0--0h3--2--|

C#]-----------------------------------------------------------------------------|
G#]-----------------------------------------------------------------------------|
 E]-----------------------------------------------------------------------------|
 B]------------------------------------------------------------------5--5--5-0--|
F#]--0h2--0--0h2--0--3p2--0--0h2--0--0h3--2----0h2--0--0h2--0--0--0--5--5--5-0--|
 B]--0h2--0--0h2--0--3p2--0--0h2--0--0h3--2----0h2--0--0h2--0--0--0--5--5--5-0--|

C#]------------------------------------------------------------------------------------|
G#]------------------------------------------------------------------------------------|
 E]------------------------------------------------------------------------------------|
 B]------------------------------------------------------------------------------------|
F#]--0h2--0--0h2--0--3p2--0--0h2--0--0h3--2----0h2--0--0h2--0--3p2--0--0h2--0--0h3--2--|
 B]--0h2--0--0h2--0--3p2--0--0h2--0--0h3--2----0h2--0--0h2--0--3p2--0--0h2--0--0h3--2--|

C#]----------------------------------------------------------------------------------------|
G#]----------------------------------------------------------------------------------------|
 E]----------------------------------------------------------------------------------------|
 B]------------------------------------------------------------------5--5--5-0--5--5--5-0--|
F#]--0h2--0--0h2--0--3p2--0--0h2--0--0h3--2----0h2--0--0h2--0--0--0--5--5--5-0--5--5--5-0--|
 B]--0h2--0--0h2--0--3p2--0--0h2--0--0h3--2----0h2--0--0h2--0--0--0--5--5--5-0--5--5--5-0--|

Verse 1:
C#]---------------------------------------------|
G#]---------------------------------------------|
 E]---------------------------------------------|
 B]---------------------------------------------|
F#]--2-2-2-2-3---2-2-2-3---2-2-2-2-3---2-2-2-3--|
 B]--2-2-2-2-3---2-2-2-3---2-2-2-2-3---2-2-2-3--|
PM   . . . . .   . . . .   . . . . .   . . . .

C#]-----------------------------------------------------|
G#]-----------------------------------------------------|
 E]-----------------------------------------------------|
 B]-----------------------------------------------------|
F#]--2-2-2-2-3---2-2-2-3---2-2-2-2-3---0--0--5--5--5-0--|
 B]--2-2-2-2-3---2-2-2-3---2-2-2-2-3---0--0--5--5--5-0--|
PM   . . . . .   . . . .   . . . . .

C#]---------------------------------------------|
G#]---------------------------------------------|
 E]---------------------------------------------|
 B]---------------------------------------------|
F#]--2-2-2-2-3---2-2-2-3---2-2-2-2-3---2-2-2-3--|
 B]--2-2-2-2-3---2-2-2-3---2-2-2-2-3---2-2-2-3--|
PM   . . . . .   . . . .   . . . . .   . . . .

C#]-----------------------------------------------------|
G#]-----------------------------------------------------|
 E]-----------------------------------------------------|
 B]-----------------------------------------------------|
F#]--2-2-2-2-3---2-2-2-3---2-2-2-2-3---0--0--5--5--5-0--|
 B]--2-2-2-2-3---2-2-2-3---2-2-2-2-3---0--0--5--5--5-0--|
PM   . . . . .   . . . .   . . . . .   . . . .

C#]---------------------------------------------|
G#]---------------------------------------------|
 E]---------------------------------------------|
 B]---------------------------------------------|
F#]--2-2-2-2-3---2-2-2-3---2-2-2-2-3---2-2-2-3--|
 B]--2-2-2-2-3---2-2-2-3---2-2-2-2-3---2-2-2-3--|
PM   . . . . .   . . . .   . . . . .   . . . .

C#]-----------------------------------------------------|
G#]-----------------------------------------------------|
 E]-----------------------------------------------------|
 B]-----------------------------------------------------|
F#]--2-2-2-2-3---2-2-2-3---2-2-2-2-3---0--0--5--5--5-0--|
 B]--2-2-2-2-3---2-2-2-3---2-2-2-2-3---0--0--5--5--5-0--|
PM   . . . . .   . . . .   . . . . .   . . . .

C#]---------------------------------------------|
G#]---------------------------------------------|
 E]---------------------------------------------|
 B]---------------------------------------------|
F#]--2-2-2-2-3---2-2-2-3---2-2-2-2-3---2-2-2-3--|
 B]--2-2-2-2-3---2-2-2-3---2-2-2-2-3---2-2-2-3--|
PM   . . . . .   . . . .   . . . . .   . . . .

C#]-----------------------------------------------------|
G#]-----------------------------------------------------|
 E]-----------------------------------------------------|
 B]-----------------------------------------------------|
F#]--2-2-2-2-3---2-2-2-3---2-2-2-2-3---0--0--5--5--5-0--|
 B]--2-2-2-2-3---2-2-2-3---2-2-2-2-3---0--0--5--5--5-0--|
PM   . . . . .   . . . .   . . . . .   . . . .

Pre-Chorus:
(Guitar 1 plays for awhile then Guitar 2 plays this...)
C#]--------------------|
G#]--------------------|
 E]--------------------|
 B]--------------------|
F#]--2--2---3--2--10\--|
 B]--2--2---3--2--10\--|

Chorus:
C#]----------------------------------------------------------------------|
G#]----------------------------------------------------------------------|
 E]----------------------------------------------------------------------|
 B]--2----3--2--5--0--0--5--0-----------2----3--2--5--0--0--5--0---------|
F#]--2----3--2--5--0--0--5--0--7-8-7----2----3--2--5--0--0--5--0--7-8-7--|
 B]--2----3--2--5--0--0--5--0--7-8-7----2----3--2--5--0--0--5--0--7-8-7--|

C#]---------------------------------------------------------|
G#]---------------------------------------------------------|
 E]---------------------------------------------------------|
 B]--2----3--2--5--0--0--5--0----------0--0--5--5--0--8--7--|
F#]--2----3--2--5--0--0--5--0--7-8-7---0--0--5--5--0--8--7--|
 B]--2----3--2--5--0--0--5--0--7-8-7---0--0--5--5--0--8--7--|

C#]----------------------------------------------------------------------|
G#]----------------------------------------------------------------------|
 E]----------------------------------------------------------------------|
 B]--2----3--2--5--0--0--5--0-----------2----3--2--5--0--0--5--0---------|
F#]--2----3--2--5--0--0--5--0--7-8-7----2----3--2--5--0--0--5--0--7-8-7--|
 B]--2----3--2--5--0--0--5--0--7-8-7----2----3--2--5--0--0--5--0--7-8-7--|

C#]---------------------------------------------------------|
G#]---------------------------------------------------------|
 E]---------------------------------------------------------|
 B]--2----3--2--5--0--0--5--0----------0--0--5--5--0--8--7--|
F#]--2----3--2--5--0--0--5--0--7-8-7---0--0--5--5--0--8--7--|
 B]--2----3--2--5--0--0--5--0--7-8-7---0--0--5--5--0--8--7--|

Interlude:
C#]------------------------------------------------------------------------------------|
G#]------------------------------------------------------------------------------------|
 E]------------------------------------------------------------------------------------|
 B]------------------------------------------------------------------------------------|
F#]--0h2--0--0h2--0--3p2--0--0h2--0--0h3--2----0h2--0--0h2--0--3p2--0--0h2--0--0h3--2--|
 B]--0h2--0--0h2--0--3p2--0--0h2--0--0h3--2----0h2--0--0h2--0--3p2--0--0h2--0--0h3--2--|

C#]-----------------------------------------------------------------------------|
G#]-----------------------------------------------------------------------------|
 E]-----------------------------------------------------------------------------|
 B]------------------------------------------------------------------5--5--5-0--|
F#]--0h2--0--0h2--0--3p2--0--0h2--0--0h3--2----0h2--0--0h2--0--0--0--5--5--5-0--|
 B]--0h2--0--0h2--0--3p2--0--0h2--0--0h3--2----0h2--0--0h2--0--0--0--5--5--5-0--|

Verse 2:
C#]---------------------------------------------|
G#]---------------------------------------------|
 E]---------------------------------------------|
 B]---------------------------------------------|
F#]--2-2-2-2-3---2-2-2-3---2-2-2-2-3---2-2-2-3--|
 B]--2-2-2-2-3---2-2-2-3---2-2-2-2-3---2-2-2-3--|
PM   . . . . .   . . . .   . . . . .   . . . .

C#]-----------------------------------------------------|
G#]-----------------------------------------------------|
 E]-----------------------------------------------------|
 B]-----------------------------------------------------|
F#]--2-2-2-2-3---2-2-2-3---2-2-2-2-3---0--0--5--5--5-0--|
 B]--2-2-2-2-3---2-2-2-3---2-2-2-2-3---0--0--5--5--5-0--|
PM   . . . . .   . . . .   . . . . .

C#]---------------------------------------------|
G#]---------------------------------------------|
 E]---------------------------------------------|
 B]---------------------------------------------|
F#]--2-2-2-2-3---2-2-2-3---2-2-2-2-3---2-2-2-3--|
 B]--2-2-2-2-3---2-2-2-3---2-2-2-2-3---2-2-2-3--|
PM   . . . . .   . . . .   . . . . .   . . . .

C#]-----------------------------------------------------|
G#]-----------------------------------------------------|
 E]-----------------------------------------------------|
 B]-----------------------------------------------------|
F#]--2-2-2-2-3---2-2-2-3---2-2-2-2-3---0--0--5--5--5-0--|
 B]--2-2-2-2-3---2-2-2-3---2-2-2-2-3---0--0--5--5--5-0--|
PM   . . . . .   . . . .   . . . . .   . . . .

Pre-Chorus:
(Guitar 1 plays for awhile then Guitar 2 plays this...)
C#]--------------------|
G#]--------------------|
 E]--------------------|
 B]--------------------|
F#]--2--2---3--2--10\--|
 B]--2--2---3--2--10\--|

Chorus:
C#]----------------------------------------------------------------------|
G#]----------------------------------------------------------------------|
 E]----------------------------------------------------------------------|
 B]--2----3--2--5--0--0--5--0-----------2----3--2--5--0--0--5--0---------|
F#]--2----3--2--5--0--0--5--0--7-8-7----2----3--2--5--0--0--5--0--7-8-7--|
 B]--2----3--2--5--0--0--5--0--7-8-7----2----3--2--5--0--0--5--0--7-8-7--|

C#]---------------------------------------------------------|
G#]---------------------------------------------------------|
 E]---------------------------------------------------------|
 B]--2----3--2--5--0--0--5--0----------0--0--5--5--0--8--7--|
F#]--2----3--2--5--0--0--5--0--7-8-7---0--0--5--5--0--8--7--|
 B]--2----3--2--5--0--0--5--0--7-8-7---0--0--5--5--0--8--7--|

C#]----------------------------------------------------------------------|
G#]----------------------------------------------------------------------|
 E]----------------------------------------------------------------------|
 B]--2----3--2--5--0--0--5--0-----------2----3--2--5--0--0--5--0---------|
F#]--2----3--2--5--0--0--5--0--7-8-7----2----3--2--5--0--0--5--0--7-8-7--|
 B]--2----3--2--5--0--0--5--0--7-8-7----2----3--2--5--0--0--5--0--7-8-7--|

C#]---------------------------------------------------------|
G#]---------------------------------------------------------|
 E]---------------------------------------------------------|
 B]--2----3--2--5--0--0--5--0----------0--0--5--5--0--8--7--|
F#]--2----3--2--5--0--0--5--0--7-8-7---0--0--5--5--0--8--7--|
 B]--2----3--2--5--0--0--5--0--7-8-7---0--0--5--5--0--8--7--|

Solo:
(This is played in the background while Guitar 1 is playing the solo)
C#]-----------------------------------------------|
G#]-----------------------------------------------|
 E]-----------------------------------------------|
 B]--3~-----5~-----0~-----2~------------------3~--|
F#]--3~-----5~-----0~-----2~-----2--2--2--5---3~--|
 B]--3~-----5~-----0~-----2~------------------3~--|

C#]-----------------------------------------------|
G#]-----------------------------------------------|
 E]-----------------------------------------------|
 B]--3~-----5~-----0~-----2~------------------3~--|
F#]--3~-----5~-----0~-----2~-----2--2--2--5---3~--|
 B]--3~-----5~-----0~-----2~------------------3~--|

C#]-----------------------------------------------|
G#]-----------------------------------------------|
 E]-----------------------------------------------|
 B]--3~-----5~-----0~-----2~------------------3~--|
F#]--3~-----5~-----0~-----2~-----2--2--2--5---3~--|
 B]--3~-----5~-----0~-----2~------------------3~--|

C#]-----------------------------------------------|
G#]-----------------------------------------------|
 E]-----------------------------------------------|
 B]--3~-----5~-----0~-----2~------------------3~--|
F#]--3~-----5~-----0~-----2~-----2--2--2--5---3~--|
 B]--3~-----5~-----0~-----2~------------------3~--|

Bridge:
C#]-------------------------------------------------------------------|
G#]-------------------------------------------------------------------|
 E]-------------------------------------------------------------------|
 B]-----------------------------------------------------------5-3-----|
F#]--3-3-3-3-3-3-3-5--0-0-0-0-0-0-2--2-2-2-2-2-2-2-2--2-2-/5-------3--|
 B]--3-3-3-3-3-3-3-5--0-0-0-0-0-0-2--2-2-2-2-2-2-2-----------------3--|
PM   . . . . . . .    . . . . . .    . . . . . . .

C#]-------------------------------------------------------------------|
G#]-------------------------------------------------------------------|
 E]-------------------------------------------------------------------|
 B]-----------------------------------------------------------5-3-----|
F#]--3-3-3-3-3-3-3-5--0-0-0-0-0-0-2--2-2-2-2-2-2-2-2--2-2-/5-------3--|
 B]--3-3-3-3-3-3-3-5--0-0-0-0-0-0-2--2-2-2-2-2-2-2-----------------3--|
PM   . . . . . . .    . . . . . .    . . . . . . .

C#]-------------------------------------------------------------------|
G#]-------------------------------------------------------------------|
 E]-------------------------------------------------------------------|
 B]-----------------------------------------------------------5-3-----|
F#]--3-3-3-3-3-3-3-5--0-0-0-0-0-0-2--2-2-2-2-2-2-2-2--2-2-/5-------3--|
 B]--3-3-3-3-3-3-3-5--0-0-0-0-0-0-2--2-2-2-2-2-2-2-----------------3--|
PM   . . . . . . .    . . . . . .    . . . . . . .

C#]-------------------------------------------------------------------|
G#]-------------------------------------------------------------------|
 E]-------------------------------------------------------------------|
 B]-----------------------------------------------------------5-3-----|
F#]--3-3-3-3-3-3-3-5--0-0-0-0-0-0-2--2-2-2-2-2-2-2-2--2-2-/5-------3--|
 B]--3-3-3-3-3-3-3-5--0-0-0-0-0-0-2--2-2-2-2-2-2-2-----------------3--|
PM   . . . . . . .    . . . . . .    . . . . . . .

Chorus:
C#]----------------------------------------------------------------------|
G#]----------------------------------------------------------------------|
 E]----------------------------------------------------------------------|
 B]--2----3--2--5--0--0--5--0-----------2----3--2--5--0--0--5--0---------|
F#]--2----3--2--5--0--0--5--0--7-8-7----2----3--2--5--0--0--5--0--7-8-7--|
 B]--2----3--2--5--0--0--5--0--7-8-7----2----3--2--5--0--0--5--0--7-8-7--|

C#]---------------------------------------------------------|
G#]---------------------------------------------------------|
 E]---------------------------------------------------------|
 B]--2----3--2--5--0--0--5--0----------0--0--5--5--0--8--7--|
F#]--2----3--2--5--0--0--5--0--7-8-7---0--0--5--5--0--8--7--|
 B]--2----3--2--5--0--0--5--0--7-8-7---0--0--5--5--0--8--7--|

C#]----------------------------------------------------------------------|
G#]----------------------------------------------------------------------|
 E]----------------------------------------------------------------------|
 B]--2----3--2--5--0--0--5--0-----------2----3--2--5--0--0--5--0---------|
F#]--2----3--2--5--0--0--5--0--7-8-7----2----3--2--5--0--0--5--0--7-8-7--|
 B]--2----3--2--5--0--0--5--0--7-8-7----2----3--2--5--0--0--5--0--7-8-7--|

C#]---------------------------------------------------------|
G#]---------------------------------------------------------|
 E]---------------------------------------------------------|
 B]--2----3--2--5--0--0--5--0----------0--0--5--5--0--8--7--|
F#]--2----3--2--5--0--0--5--0--7-8-7---0--0--5--5--0--8--7--|
 B]--2----3--2--5--0--0--5--0--7-8-7---0--0--5--5--0--8--7--|

C#]----------------------------------------------------------------------|
G#]----------------------------------------------------------------------|
 E]----------------------------------------------------------------------|
 B]--2----3--2--5--0--0--5--0-----------2----3--2--5--0--0--5--0---------|
F#]--2----3--2--5--0--0--5--0--7-8-7----2----3--2--5--0--0--5--0--7-8-7--|
 B]--2----3--2--5--0--0--5--0--7-8-7----2----3--2--5--0--0--5--0--7-8-7--|

C#]---------------------------------------------------------|
G#]---------------------------------------------------------|
 E]---------------------------------------------------------|
 B]--2----3--2--5--0--0--5--0----------0--0--5--5--0--8--7--|
F#]--2----3--2--5--0--0--5--0--7-8-7---0--0--5--5--0--8--7--|
 B]--2----3--2--5--0--0--5--0--7-8-7---0--0--5--5--0--8--7--|

Outro:
C#]------------------------------------------------------------------------------------|
G#]------------------------------------------------------------------------------------|
 E]------------------------------------------------------------------------------------|
 B]------------------------------------------------------------------------------------|
F#]--0h2--0--0h2--0--3p2--0--0h2--0--0h3--2----0h2--0--0h2--0--3p2--0--0h2--0--0h3--2--|
 B]--0h2--0--0h2--0--3p2--0--0h2--0--0h3--2----0h2--0--0h2--0--3p2--0--0h2--0--0h3--2--|

C#]------------------------------------------------------------------------------------|
G#]------------------------------------------------------------------------------------|
 E]------------------------------------------------------------------------------------|
 B]------------------------------------------------------------------------------------|
F#]--0h2--0--0h2--0--3p2--0--0h2--0--0h3--2----0h2--0--0h2--0--3p2--0--0h2--0--0h3--2--|
 B]--0h2--0--0h2--0--3p2--0--0h2--0--0h3--2----0h2--0--0h2--0--3p2--0--0h2--0--0h3--2--|

C#]------------------------------------------------------------------------------------|
G#]------------------------------------------------------------------------------------|
 E]------------------------------------------------------------------------------------|
 B]------------------------------------------------------------------------------------|
F#]--0h2--0--0h2--0--3p2--0--0h2--0--0h3--2----0h2--0--0h2--0--3p2--0--0h2--0--0h3--2--|
 B]--0h2--0--0h2--0--3p2--0--0h2--0--0h3--2----0h2--0--0h2--0--3p2--0--0h2--0--0h3--2--|

C#]-----------------------------------------------------------------------------|
G#]-----------------------------------------------------------------------------|
 E]-----------------------------------------------------------------------------|
 B]------------------------------------------------------------------5--5--5-0--|
F#]--0h2--0--0h2--0--3p2--0--0h2--0--0h3--2----0h2--0--0h2--0--0--0--5--5--5-0--|
 B]--0h2--0--0h2--0--3p2--0--0h2--0--0h3--2----0h2--0--0h2--0--0--0--5--5--5-0--|
Related for Before I Forget tab
×
Best way to learn
"Before I Forget"