Smak - Tegoba tab

SMAK - Tegoba
From "Crna Dama" 1977, http://www.youtube.com/watch?v=uwlY8W-odjM
tabbed by Almir Nametak
mokra@starmo.co.uk
June 2011

E------0------0-1-5-3--------0------0-1-5-3-----------------------------------------|
B-----1-1------------1-0----1-1------------1-0--------------------------------------|
G----4---4---2-------------4---4---2------------------------------------------------|
D---2-----2-0-------------2-----2-0-------------------------------------------------|
A--0---------------------0----------------------------------------------------------|
E-----------------------------------------------------------------------------------|


E--------------------------0------0-1-5-3-------------------------------------------|
B---0-3---3--3-1-0-0------1-1------------1-0----------------------------------------|
G----0---0---2----2-0-0--4---4---2--------------------------------------------------|
D--2----2---0--------0--2-----2-0---------------------------------------------------|
A--0---0---------------0------------------------------------------------------------|
E-----------------------------------------------------------------------------------|


E-------------------------------0---------------------------------------------------|
B-------0-3---3--3-1-0-0-------1-1-----0--------------------------------------------|
G--------0---0---2----2-0-----4---4---2---------------------------------------------|
D--2-2-2----2---0--------2/5-2-----2-0----------------------------------------------|
A--0-------0----------------0-------------------------------------------------------|
E-----------------------------------------------------------------------------------|


E----------0=-------------0-1-1/3-0=------------------------------------------------|
B----1-3-1----3-3---3=-------------------------3=----3-1-0-3------------------------|
G---2------2-----2--0-------------------0-2-0-------2-------------------------------|
D--2--------3-----3---0-2--------------2-----2-3-2-3--------------------------------|
A------------5--------------------3-2-3---------------------------------------------|
E-------------------3--------------------------1------------------------------------|


E-----------------------------------------------------------------------------------|
B--3-3-3-0--0-0-1-1/3-0/1/0-0----0/1/0-0--------------------------------------------|
G--2-2-2-2----2-------2------2---1------1-------------------------------------------|
D--3-3-3-3-3--3-------2----2--2--2----2--2------------------------------------------|
A--2-----2----2-------2--------2-2--------------------------------------------------|
E-----------------------------------------3-1---------------------------------------|


E--------------------------0------0-1-5-3-------------------------------------------|
B---0-3---3--3-1-0-0------1-1------------1-0----------------------------------------|
G----0---0---2----2-0-0--4---4---2--------------------------------------------------|
D--2----2---0--------0--2-----2-0---------------------------------------------------|
A--0---0---------------0------------------------------------------------------------|
E-----------------------------------------------------------------------------------|


E-------------------------------0---------------------------------------------------|
B-------0-3---3--3-1-0-0-------1-1-----0--------------------------------------------|
G--------0---0---2----2-0-----4---4---2---------------------------------------------|
D--2-2-2----2---0--------2/5-2-----2-0----------------------------------------------|
A--0-------0----------------0-------------------------------------------------------|
E-----------------------------------------------------------------------------------|


E----------0=-------------0-1-1/3-0=------------------------------------------------|
B----1-3-1----3-3---3=-------------------------3=----3-1-0-3------------------------|
G---2------2-----2--0-------------------0-2-0-------2-------------------------------|
D--2--------3-----3---0-2--------------2-----2-3-2-3--------------------------------|
A------------5--------------------3-2-3---------------------------------------------|
E-------------------3--------------------------1------------------------------------|


E-----------------------------------------------------------------------------------|
B--3-3-3-0--0-0-1-1/3-0/1/0-0----0/1/0-0--------------------------------------------|
G--2-2-2-2----2-------2------2---1------1-------------------------------------------|
D--3-3-3-3-3--3-------2----2--2--2----2--2------------------------------------------|
A--2-----2----2-------2--------2-2--------------------------------------------------|
E-----------------------------------------3-1---------------------------------------|



E--0-0-0-------0-1-3-0-0-0----------------------------------------0------0----------|
B--1-----3--3-3------1-1----3--3-5-3---3-1-1-1-1--1-0-1-0/1/0----1-1---------1-3-1--|
G--2-----0-----------2-2----4-------5-4--2-2-2-0-------------0--4---4---2---2-------|
D--2-----0-0---------3-3----5-5----------0-----2-2-------------2-----2-0---2--------|
A--0-------------------------------------------3--------------0---------------------|
E--------3----3------1-----0--------------------------------------------------------|



E--0-0-0-------0-1-3-0-0-0----------------------------------------0------0-1-5-3----|
B--1-----3--3-3------1-1----3--3-5-3---3-1-1-1-1--1-0-1-0/1/0----1-1------------1-0-|
G--2-----0-----------2-2----4-------5-4--2-2-2-0-------------0--4---4---2-----------|
D--2-----0-0---------3-3----5-5----------0-----2-2-------------2-----2-0------------|
A--0-------------------------------------------3--------------0---------------------|
E--------3----3------1-----0--------------------------------------------------------|


organ solo over these chords:

E-----------------------------------------------------------------------------------|
B-------1------3--------------------------------------------------------------------|
G-------2------4--------------------------------------------------------------------|
D-------2------4--------------------------------------------------------------------|
A-----0-0----0-2--------------------------------------------------------------------|
E--0-3----0-3-----------------------------------------------------------------------|
Tap to rate this tab
 
# A B C D E F G H I J K L M N O P Q R S T U V W X Y Z