Guitaretab - guitar tabs
Song name
# A B C D E F G H I J K L M N O P Q R S T U V W X Y Z

Smashing Pumpkins - Disarm tab

Tabbed by Brian McCall

Disarm solo, as played on the various live versions of this 
song, although there are always slight variations.

|-----------------------------------------------------
|-8/10---10/12---12~----12---15---15---15-----15------
|------0-------0----0-0----0----0----0----0-0----0--0-
|-----------------------------------------------------
|-----------------------------------------------------
|-----------------------------------------------------

|--------------------------------------15--------15-----
|-8/10---10/12---12~----12---15---15-------15-------15--
|------0-------0----0-0----0----0----0---------0-------0
|-------------------------------------------------------
|-------------------------------------------------------
|-------------------------------------------------------

|-------------------------------------------------------
|-17\15-----15\13---13-12---12---12h13-12h13-12h13-12---
|-------0-0-------0-------0----0----------------------14
|-------------------------------------------------------
|-------------------------------------------------------
|-------------------------------------------------------

|-------------------------------------------------------
|-------------17\15-----15\13---13-12---12---12h13-12h13
|-12~-12-12---------0-0-------0-------0----0------------
|-----------0-------------------------------------------
|-------------------------------------------------------
|-------------------------------------------------------

|----------------------------------------------------
|-12h13-12--------------17\15-----15\13---13-12---12-
|----------14-12~-12-12-------0-0-------0-------0----
|----------------------------------------------------
|----------------------------------------------------
|----------------------------------------------------

|-15---15--------15b------------------------------------
|-15------15--------------------------------------------
|-12---------12-----------------------------------------
|(0)----------------------------------------------------
|-------------------------------------------------------
|-------------------------------------------------------
  ^strum slowly
[ Tab from: http://www.guitaretab.com/s/smashing-pumpkins/17530.html ]
Related for Disarm tab
×
Disarm