Song name
# A B C D E F G H I J K L M N O P Q R S T U V W X Y Z

Smashing Pumpkins - Dancing In The Moonlight tab

|-0----0----3----3-|
|-3----3----3----3-|
|-0----2----0----0-|
|-2----0----2----0-|
|-2---------3----2-|
|-0--------------3-|Play this thru whole song


SOLO
|------------------------------------------------------------------|
|------------------------------------------------------------------|
|--------------------------------------------14gb16~~-(12)--11~~~~-|
|-----------------------------------12-12/14-----------------------|
|-----------------------------12/14--------------------------------|
|-12~~-14b15r14-10-10/12~~-15--------------------------------------|

 ---------------------------12-12/14-12-15-14----------------------|
 ------------------------15-------------------12-13----------------|
 -11h12p11\9/11-14-14/16----------------------------12h14p12\11h12-|
 ------------------------------------------------------------------|
 ------------------------------------------------------------------|
 ------------------------------------------------------------------|

 ------------------------------------------------------------------|
 ---------------------------------------------13p12p10-------------|
 -11-12-11----11-14-14/16-14~~-12p11\9/11-12----------11-12-14-14b-|
 ----------14------------------------------------------------------|
 ------------------------------------------------------------------|
 ------------------------------------------------------------------|

 ------------------------------12-12/14-15-15b17b17b17b17b17b17~~-|
 ------------------------13-15------------------------------------|
 b16--11h12p11\9h11/14~~------------------------------------------|
 -----------------------------------------------------------------|
 -----------------------------------------------------------------|
 -----------------------------------------------------------------|



End on G
|-3--------------3-|
|---3------------3-|
|-----0----------0-|
|-------0--------0-|
|---------2------2-|
|-----------3----3-|
Tap to rate this tab
# A B C D E F G H I J K L M N O P Q R S T U V W X Y Z