Song name
# A B C D E F G H I J K L M N O P Q R S T U V W X Y Z

Smile Empty Soul - Faceless tab



intro/verse (rotary drive effect w/ delay)


-----------------------------------------------------------------------------|
-----------------------------------------------------------------------------|
-----------------------------------------------------------------------------|
----------5-5-5-5---------3-3-3-3---------1-1-1-1----------------------------|
--3-3-3-3---------3-3-3-3---------3-3-3-3---------3-3-3-3-1-1-1-1------------|
-----------------------------------------------------------------------------|


-----------------------------------------------------------------------------|
-----------------------------------------------------------------------------|
-----------------------------------------------------------------------------|
-----------------------------------------------------------------------------|
--------6-6-6-6----------8-8-8-8----------10-10-10-10------------------------|
-4-4-4-4----------6-6-6-6----------8-8-8-8-------------8-8-8-8-6-6-6-6-------|

prechorus:
  Ab5              Bb5
I cant believe you sold,
  Ab5              Bb5
I can't believe you sold out,
          Ab5               Bb5
Rip your soul out, rip your soul.


Chorus:

          Ab5  F5
Would you face me?
    C5
And look into my eyes
          Ab5     F5
before you lied, Straight,
  C5
through your teeth,
    Ab5 F5
And may-be, you can
 C5
pull it off again,
             Ab5  F5
But you can count me out.

Breakdown:

C5
I can't believe your selling out,
                       Ab5
Though we bury all the useless,
                F5
we bury all the useless, everyday.
C5
I can't believe your selling out,
                      Ab5
though we bury all the useless,
                 F5
We bury all the useless, everyday.


Ab5-Bb5

Chorusx1

The chords for the chorus are the same for the last part, only it has different words.

This is accurate, not perfect. Any corrections you have send to taylor4525@gmail.com

Your welcome. ;D
Tap to rate this tab
# A B C D E F G H I J K L M N O P Q R S T U V W X Y Z