Song name
# A B C D E F G H I J K L M N O P Q R S T U V W X Y Z

Smile Empty Soul - Vultures tab

Tuned Down 1/2 Step Drop D
Strumming is approximate
/ Slide Up

Intro/Verse 1/Verse 2/Verse 3
E---------------------------------------------------------------------------|
B---------------------------------------------------------------------------|
G-7----7-7----7-/-9----9----9-/-11----11-11-11---12-\-11-11-11--------------|
D-x----x-x----x---x----x----x---x-----x--x--x----x----x--x--x-----9---9-----|
A-5----5-5----5-/-7----7----7-/-9-----9--9--9----10-\-9--9--9-----9---9-----|
D-0----0-0----0---0----0----0---0-----0--0--0----0----0--0--0-----9---9-----|

E----------------------|
B----------------------|
G-0--------11-11-11----|
D-----0----x--x--x-----|
A----------9--9--9-----|
D----------0--0--0-----|

Chorus 1/ Chorus 2/Chorus 3
E---------------------------------------------------------------|
B---------------------------------------------------------------|
G---------------------------------------------------------------|
D-5----5----5-5-5-5---5-5-5-5----0----0----0-0-0-0---0-0-0-0----|
A-5----5----5-5-5-5---5-5-5-5----0----0----0-0-0-0---0-0-0-0----|
D-5----5----5-5-5-5---5-5-5-5----0----0----0-0-0-0---0-0-0-0----|

E----------------------------------------------------------------|
B---------------------------------------------3---3-3---3-3-3-3--|
G--------------------------------4---4-4-4----2---2-2---2-2-2-2--|
D-5----5----5-5-5-5---5-5-5-5----4---4-4-4----0---0-0---0-0-0-0--|
A-5----5----5-5-5-5---5-5-5-5----2---2-2-2----0---0-0---0-0-0-0--|
D-5----5----5-5-5-5---5-5-5-5-----------------0---0-0---0-0-0-0--|

Pre Verse
E---------------------------------------------------------------------------|
B---------------------------------------------------------------------------|
G-7----7-7----7-/-9----9----9-/-11----11-11-11---12-\-11-11-11--------------|
D-x----x-x----x---x----x----x---x-----x--x--x----x----x--x--x-----9---9-----|
A-5----5-5----5-/-7----7----7-/-9-----9--9--9----10-\-9--9--9-----9---9-----|
D-0----0-0----0---0----0----0---0-----0--0--0----0----0--0--0-----9---9-----|

E-7---7-7----------------|
B-0---0-0----------------|
G-0---0-0----11-11-11----|
D------------x--x--x-----|
A------------9--9--9-----|
D------------0--0--0-----|

Outro
E-------------------------------------------------------------------|
B-------------------------------------------------------------------|
G-------------------------------------------------------------------|
D-5----5--5-/-7-7-7---7---7-7--9------------------------------------|
A-5----5--5-/-7-7-7---7---7-7--9------------------------------------|
D-5----5--5-/-7-7-7---7---7-7--9------------------------------------|
Tap to rate this tab
 
# A B C D E F G H I J K L M N O P Q R S T U V W X Y Z