Song name
# A B C D E F G H I J K L M N O P Q R S T U V W X Y Z

Smile Empty Soul - Eraser tab

Smile Empty Soul-Eraser
This is a very simple song
The tuning is half step down
*-harmonic
/-slide up
\-slide down
Pt.1
-------------------------------------|
-------------------------------------|
------6-6-6--9-9---------------------|
------6-6-6--9-9-------4-4-4--9-9----|
--4-4-4-4-4/-7-7-------4-4-4--9-9----|
-------------------2-2-2-2-2/-7-7----|
Repeat(follow strumming patterns)

Pre chorus
-----------------------------|
-----------------------------|
-4---6---7-------------------|
-----------------------------|
-2---4---5-------------------|
-----------------------------|
that isnt right but its the closest I got

Chorus
-----------------------------|
-----------------------------|
-6----4----------------------|
-6----4---4----2-------------|
-4----2---4----2-------------|
----------2----0-------------|
(after chorus repeat from verse 1 again)

Solo thingy
---------------12-12-\-11-11---------|
-/-9(let ring)-----------------------|
------------------------------9-8----|
-------------------------------------|
-------------------------------------|
-------------------------------------|
Repeat
-----------------------------------------------------------------------------|
-9-10-12-10-9-10-------------------------------------------------------------|
-----------------6-8-9-11-9-11-13\11-9-9-13\11-9-9-13\11-9-9-8/9-8-6/8-6-4/6-|
-----------------------------------------------------------------------------|
-----------------------------------------------------------------------------|
-----------------------------------------------------------------------------|

-----------------*5------------------------|
-----------------*5------------------------|
-6---4-----------*5------------------------|
-6---4--3---4----*5------------------------|
-4---2--3---4----*5------------------------|
--------1---2----*5------------------------|
Back to chorus and then verse 1 on distortion
very simple song if you have any problems with the tab just tell me and i'll fix it
my email is dead_to_them@yahoo.com
Tap to rate this tab
# A B C D E F G H I J K L M N O P Q R S T U V W X Y Z