Song name
# A B C D E F G H I J K L M N O P Q R S T U V W X Y Z

Smile Empty Soul - Were Through tab

verse
-----------------------------|
-----------------------------|
-------------------5h3h2p0---| 4x
7777755555333330000----------|
7777733333333330000----------|
77777-----333330000----------|

pre chorus
"crying out in pain"
----------------|
----------------|
----------------|
55555777777-----|
33333555777-----|
--------777-----|

Chorus
----------------|    between the two times sean does palm mute bar on 5th
----------------|    and goes back into the second time on the chrous
----------------| 2x
3-0-5-7-3-5-7---|
3-0-3-5-3-5-7---|
3-0-----3-5-7---|

bridge part1
----------------------------------------------------|
----------------------------------------------------|
----5h3h2p0----5h3h2p0----5h3h2p0-------------------|1x
7-3---------0-3--------7-3--------0-3-5-7-----------|
7-3---------0-3--------7-3--------0-3-3-5-----------|
7-3---------0-3--------7-3--------0-3---------------|

bridge part2                part3
---------                      --------|
---------                      --------|
---------3x on the 4th do this --------|
3-5-7----                      -3-5p0--|
3-5-7----                      -3-5p0--|
3-5-7----                      -3-5p0--|

pre-chorus #2
---------------|
---------------|
---------------|
5-7-7-5-3-5-7--|
3-5-7-3-3-5-7--|
----7---3-5-7--|

verse             4x
pre-chorus #1     1x
chorus            2x
verse             3x
pre-chorus #1     1x
chorus            2x
bridge #1         1x
bridge #2         3x
bridge #3         1x
pre-chorus #2     1x
chorus            2x
bridge #1         1x but with out the last part of it

then end with open chord
Tap to rate this tab
# A B C D E F G H I J K L M N O P Q R S T U V W X Y Z