Guitaretab - guitar tabs
Song name
# A B C D E F G H I J K L M N O P Q R S T U V W X Y Z

Smile Empty Soul - End Of The World tab

Standard Tuning Drop D

Part 1: 10x
E-------------------|
B-------------------|
G-9----4----8--8----|
D-7----2----6--6----|
A-5----0----4--4----|
D-------------------|
[ Tab from: http://www.guitaretab.com/s/smile-empty-soul/140615.html ]
Part 2: 2x
E------7-----------------------------|
B------10----------------------------|
G------9----6----7----9----4---------|
D-7----7----6----7----9----4----9----|
A-7----7----4----5----7----2----7----|
D-7----7------------------------7----|

Part 3:
E----------------------------------------|
B----------------------------------------|
G----------------------------------------|
D-7----9--9----7----9--9----7----9--9----|
A-7----7--7----7----7--7----7----7--7----|
D-7----7--7----7----7--7----7----7--7----|

Part 2: 2x

Part 3: 1x
Related for End Of The World tab
Advertisement will be closed in 10 seconds