Guitaretab - guitar tabs
Song name
# A B C D E F G H I J K L M N O P Q R S T U V W X Y Z

Smiths - Bigmouth Strikes Again tab

Here is the perfect Tab of this song 100% CORRECT:

(Chord Progression) (Capo on 4th)
e|--0------0------3------5------0------0------0------1------0------0----|
B|--1------1------1------3------3------1------1------1------1------3----|
G|--2------0------0------0------0------2------0------2------2------4----|
D|--2------2------2------4------4------2------2------3------3------5----|
A|--0------0------3------5------5------0------0------0------0------0----|
E|----------------------------------------------------------------------|
   C#m   C#m7   EaddB   F#add11       C#m    C#m7  A/C#  Amaj7/C#  B6/C#

[ Tab from: http://www.guitaretab.com/s/smiths/17664.html ]
(2nd Guitar)(No capo)
e|------------------------------7-----|---------------------------7-----|
B|--9--7--------------9--7---------9--|--9--7------------------------9--|
G|--------9-9--8--9--------9-9--------|--------9-9--8--9--9--98--------| x4
D|------------------------------------|---------------------------------|
A|------------------------------------|---------------------------------|
E|------------------------------------|---------------------------------|


(Little Fill)
e|------------|
B|--12\9-9~---|
G|------------|
D|------------|
A|------------|
E|------------|

(Interlude Chords) (Capo on 4th)
e|--0------3--------5-----|
B|--0------3--------5-----|
G|--0---------------------|
D|------------------------|
A|------------------------|
E|------------------------|
   G#m     B5       C#5


| /  slide up
| \  slide down
| h  hammer-on
| p  pull-off
| ~  vibrato
| +  harmonic
| x  Mute note
Related for Bigmouth Strikes Again tab