Song name
# A B C D E F G H I J K L M N O P Q R S T U V W X Y Z

Smiths - You Just Havent Earned It Yet tab

#----------------------------------PLEASE NOTE---------------------------------#
#This file is the author's own work and represents their interpretation of the #
#song. You may only use this file for private study, scholarship, or research. #
#------------------------------------------------------------------------------##
From: kjohn@quads.uchicago.edu (SINE QUA NON)
Subject: TAB: You Just Haven't Earned It Yet Baby


Note:  I'm tabbing this as if it were written in the key of D, but if you want
to sound like the "Louder than Bombs" version, capo at the 4th fret.  Also,
if you want to hear a very different version of this song, check out Kirsty
MacColl's album 'Kite.'  Marr does a reworking of his own song!


Intro:

    Bm        G         D
---------------------------------------------------|
----2-3-2-0----3-5-5-3--7-7------------------------|
---4----------4------------------------------------|
--4----------5---------7-7-------------------------|
---------------------------------------------------|
---------------------------------------------------|

Verse riff:(If you want to play Chords only, play A G Em)

---------------------------------------------------------------|
---------------------------------------------------------------|
----2-2--0-----2-2-2-0-----------------------------------------|
------------2----------2---------------------------------------|
---------------------------------------------------------------|
---------------------------------------------------------------|

End of Verse Riff

---------------------------------------------------------------|
----------------4---5-4----------------------------------------|
------------------4-----4--------------------------------------|
----4---5-4----------------------------------------------------|
------5-----5--------------------------------------------------|
---------------------------------------------------------------|

Chorus:

Bm       G           D          A
---------------------2---3-2-----------------------------------|
-2--3-0-----3-5-5-3----3-----3------3-2------------------------|
--4-------4-----------------------2----------------------------|
--------5-----------------------2------------------------------|
---------------------------------------------------------------|
---------------------------------------------------------------|


Towards the end of the second to last Chorus, there's a bridge:(2x)

-3------1------------------------------------------------------|
---3------1----------------------------------------------------|
-----5------2------0------0------------------------------------|
-----------------2------4---4----------------------------------|
---------------3------5----------------------------------------|
---------------------------------------------------------------|
Tap to rate this tab
# A B C D E F G H I J K L M N O P Q R S T U V W X Y Z