Guitaretab - guitar tabs
Song name
# A B C D E F G H I J K L M N O P Q R S T U V W X Y Z

Social Distortion - Telling Them tab

Social Distortion
Telling Them
From the album "Mommy's Little Monster"
Friday Jan. 26th. 2007
Standard Tuning
the only thing that makes this song difficult is getting the sound of the solo. there 
bits of the beginning of it that i missed because of the amount of distortion. if you need 
other Social D songs tabed out let me know at deadkennedy1581@yahoo.com or on Myspace.com. Enjoy and Rate!

Intro:
Guitar 1 Dennis Danel                        Played After Guitar 2 sets in
E--0-7-0-7-0-7-0-7-0-7-0-7-0-7-0-7-0-7-0------7-7-5-7-7-7-5-7-7-7-5-7-7-7-|
B-------------------------------------------------------------------------|
G-------------------------------------------------------------------------|
D-------------------------------------------------------------------------|
A-------------------------------------------------------------------------|
E-------------------------------------------------------------------------|

Guitar 2 Mike Ness  Verse
E-------------------------------------------------------------------------|
B-------------------------------------------------------------------------|
G--9-9-9-9-9-------------7-7-7-7-7----------------------------------------|
D--9-9-9-9-9--5-5-5-5-5--7-7-7-7-7--7-7-7-7-7-----------------------------|
A--7-7-7-7-7--5-5-5-5-5--5-5-5-5-5--7-7-7-7-7-----------------------------|
E-------------3-3-3-3-3-------------5-5-5-5-5-----------------------------|

Interlude x2 and Chorus x2
[ Tab from: http://www.guitaretab.com/s/social-distortion/151381.html ]
E--------------------------------------------------------------------------|
B--------------------------------------------------------------------------|
G--------------------------------------------------------------------------|
D-9-9-9-9-9--7-7-7-7-7--5-5-5-5-5--4-4-4-4-4-------------------------------|
A-9-9-9-9-9--7-7-7-7-7--5-5-5-5-5--4-4-4-4-4-------------------------------|
E-7-7-7-7-7--5-5-5-5-5--3-3-3-3-3--2-2-2-2-2-------------------------------|

Solo

Guitar 1:
plays this silently and slowly
E--0-7--0-7-0-0-0-7-0-7-0-7-0-0-0-7-0-0-07-0-7---|
B------------------------------------------------|
G------------------------------------------------|
D------------------------------------------------|
A------------------------------------------------|
E------------------------------------------------|

then starts off with fast with....                several fast pull offs
E--7-7-5-7-7-5-7-7-5-7-7-5-7-5-7-5-7----/10-12----15p12-------15p12--------|
B----------------------------------------------12-------15p12--------15p12-|
G--------------------------------------------------------------------------|
D--------------------------------------------------------------------------|
A--------------------------------------------------------------------------|
E--------------------------------------------------------------------------|

E--15p12--------15p12-15/17^-15-12-----------------------------------------|
B--------15p12---------------------15-12-12-10-12-10-12-10-12-10-8-10-8\5--|
G--------------------------------------------------------------------------|
D--------------------------------------------------------------------------|
A--------------------------------------------------------------------------|
E--------------------------------------------------------------------------|
Related for Telling Them tab
Advertisement will be closed in 10 seconds