Guitaretab - guitar tabs
Song name
# A B C D E F G H I J K L M N O P Q R S T U V W X Y Z

Something For Kate - Monsters Acoustic tab

Something For Kate
Monsters Acoustic
ALBUM - Echolalia

CAPO 1ST FRET


INTRO:
------

e|-------------------|
B|-0-0-0-0---0-0-0-0-|
G|-0-0-0-0---0-0-0-0-|
D|-5-5-5-5---4-4-4-4-|
A|-3-3-3-3---2-2-2-2-|
E|-3-3-3-3---0-0-0-0-|



VERSE:
------

e|---------------------------------------|
B|-0-0-0-0---0-0-0-0---0-0-0-0-----------|
G|-0-0-0-0---0-0-0-0---0-0-0-0-----------|
D|-5-5-5-5---9-9-9-9---7-7-7-7---7-7-7-7-|
A|-3-3-3-3---7-7-7-7---5-5-5-5---5-5-5-5-|
E|-3-3-3-3---7-7-7-7---5-5-5-5---6-6-7-7-|

e|---------------------------------------|
B|-0-0-0-0---0-0-0-0---0-0-0-0-----------|
G|-0-0-0-0---0-0-0-0---0-0-0-0-----------|
D|-5-5-5-5---7-7-7-7---9-9-9-9---9-9-9-9-|
A|-3-3-3-3---5-5-5-5---7-7-7-7---7-7-7-7-|
E|-3-3-3-3---5-5-5-5---7-7-7-7---8-8-9-9-|



CHORUS:
-------

e|-0-0-0-0-----------------------------|
B|-0-0-0-0---8-8-5-5---5p3-3-----------|
G|-9-9-9-9---7-7-7-7---5-5-5-5-5-4-4-4-|
D|-7-7-7-7---5-5-5-5---3-3-3-3-3-3-3-3-|
A|-7-7-7-7---5-5-5-5---3-3-3-3-3-3-3-3-|
E|-9-9-9-9-----------------------------|



POST-CHORUS:
------------
[ Tab from: http://www.guitaretab.com/s/something-for-kate/100774.html ]
e|-0--0--0--0--------------------------------------------------------------|
B|-0--0--0--0----0--0--0--0--0--0--0--0-----------12------10-------10------|
G|-9--9--9--9----12-12-9--9--0--0--0--0---------0----0-------0--------0----|
D|-11-11-11-11---0--0--0--0--9--9-/12-12-----10--------10-------10------10-|
A|-0--0--0--0----10-10-10-10-10-10/14-14---8-------------------------------|
E|-------------------------------------------------------------------------|



BRIDGE:
-------

e|-5-5-5-5---3-3---1-1---0-0-0-0---3-3-3-3-|-0-0-0-0---0-0-0-0-|
B|-6-6-6-6---5-5---3-3---1-1-1-1---3-3-3-3-|-1-1-1-1---1-1-1-1-|
G|-7-7-7-7---4-4---2-2---0-0-0-0---0-0-0-0-|-2-2-2-2---2-2-2-2-|
D|-0-0-0-0---0-0---0-0---2-2-2-2---0-0-0-0-|-3-3-3-3---3-3-3-3-|
A|-----------------------3-3-3-3---2-2-2-2-|-3-3-3-3---3-3-3-3-|
E|---------------------------------3-3-3-3-|-------------------|



FINAL CHORUS:
-------------

e|-0-0-0-0---3-3-0-0---0-0-0-0-|-----0-----|
B|-0-0-0-0---3-3-3-3---1-1-0-0-|-----0-----|
G|-2-2-2-2---0-0-0-0---2-2-2-2-|-----2-----|
D|-2-2-2-2---0-0-0-0---3-3-3-3-|-----3-----|
A|-0-0-0-0---2-2-2-2---3-3-3-3-|-----3-----|
E|-----------3-3-3-3-----------|-----------|

Related for Monsters Acoustic tab