Song name
# A B C D E F G H I J K L M N O P Q R S T U V W X Y Z

Sonata Arctica - My Land tab

#----------------------------------PLEASE NOTE---------------------------------#
#This file is the author's own work and represents their interpretation of the #
#song. You may only use this file for private study, scholarship, or research. #
#------------------------------------------------------------------------------#

MY LAND
As recorded by Sonata Arctica
(From the 1999 Album ECLIPTICA)

Transcribed by A. Casanovas
	

Words by Tony Kakko Music by Sonata Arctica
Arranged by Sonata Arctica

C5
x 3 5 x x x
	
G5/D
x 5 5 7 x x
	
D/F#
x x 4 7 x x
	
E5
x 7 9 x x x
E5open
0 2 2 x x x
	
Eb5
x 6 8 x x x
	
G5
3 5 5 x x x
	
F#5
2 4 4 x x x
B5
7 9 9 x x x
	
A5
5 7 7 x x x
	
D5
x 5 7 7 x x
	
Bb5
6 8 8 x x x
F5
x 8 10 10 x x
	
C5VIII
8 10 10 x x x
	
F#5/C#
x 4 4 6 x x

Gtr I (E A D G B E) - 'Intro Clean Guitar'
Gtr II (E A D G B E) - 'Keyboard arranged for Guitar'
Gtr III (E A D G B E) - 'Rhythm Guitar'
Gtr IV (E A D G B E) - 'Lead Guitar'
Gtr V (E A D G B E) - 'Harmony Guitar'

 Intro
  Q=150
 4/4
  Gtr I
   E  E E  Q   E  Q     +H.       Q     E  E E  Q   E  E E    +W
|--------------------|---------------|-------------------0-|--(0)----|
|----------3---------|---------------|----------3----------|---------|
|--------------0-----|---------------|-------0------0------|---------|
|-------4---------4--|--(4)----------|-----4-----------4---|---------|
|-----2--------------|------------2--|--3------------------|---------|
|--0-----------------|---------------|---------------------|---------|
|
| Gtr II
|  Q.      Q.     Q     +H.       Q     Q.      Q.     Q      +W
|-15------14---------|---------------|-12------10----------|---------|
|----------------15--|-(15)------12--|---------------------|---------|
|--------------------|---------------|----------------12---|-(12)----|
|--------------------|---------------|---------------------|---------|
|--------------------|---------------|---------------------|---------|
|--------------------|---------------|---------------------|---------|


                                                         ~~~~~~~~~
   E  E E  Q   E  Q     +H.       Q     E  E E  Q   E  E E    +W
|--------------------|---------------|-------------------0-|--(0)----|
|----------3---------|---------------|----------3----------|---------|
|--------------0-----|---------------|-------0------0------|---------|
|-------4---------4--|--(4)----------|-----4-----------4---|---------|
|-----2--------------|------------2--|--3------------------|---------|
|--0-----------------|---------------|---------------------|---------|
|
|  Q.      Q.     Q     +H.       Q     Q.      Q.     Q      +W
|----------------10--|-(10)----------|----------------12---|-(12)----|
|--------------------|---------------|---------------------|---------|
|-11------12---------|-----------12--|-11------12----------|---------|
|--------------------|---------------|---------------------|---------|
|--------------------|---------------|---------------------|---------|
|--------------------|---------------|---------------------|---------|


  Q=170
   E  E E  Q   E  Q      E   E  E Q    E  E E
|--------------------|------------------------|
|----------3---------|------------3-----------|
|--------------0-----|-----------------0------|
|-------4---------4--|----------4---------4---|
|-----2--------------|-------2--------------2-|
|--0-----------------|---0--------------------|
|
|  Q.      Q.     Q     +E   Q.      Q    Q
|-15------14---------|------15------14--------|
|----------------15--|-(15)--------------15---|
|--------------------|------------------------|
|--------------------|------------------------|
|--------------------|------------------------|
|--------------------|------------------------|


   E  E E  Q   E  E E    +E  E E Q  E Q
|-------------------0-|--(0)-------------|
|----------3----------|------3---3-------|
|-------0------0------|--------0----0----|
|-----4-----------4---|---------------4--|
|--3------------------|------------------|
|---------------------|------------------|
|
|  Q.      Q.     Q      +W
|-12------10----------|------------------|
|---------------------|------------------|
|----------------12---|-(12)-------------|
|---------------------|------------------|
|---------------------|------------------|
|---------------------|------------------|


   W                     W
   E  E E  Q   E  Q      E   E  E Q    E  E E
|--------------------|------------------------|
|----------3---------|------------3-----------|
|--------------0-----|-----------------0------|
|-------4---------4--|----------4---------4---|
|-----2--------------|-------2--------------2-|
|--0-----------------|---0--------------------|
|
|  Q.      Q.     Q     +E   Q.      Q    Q
|-15------14---------|------15------14--------|
|----------------15--|-(15)--------------15---|
|--------------------|------------------------|
|--------------------|------------------------|
|--------------------|------------------------|
|--------------------|------------------------|


                                     E5E5
                        Gtr III
   W                      H       E  E Q
                                     | |
                                     / /

   E  E E  Q   E  E E    +W
|-------------------0-|--(0)--------------|
|----------3----------|-------------------|
|-------0------0------|-------------------|
|-----4-----------4---|-------------------|
|--3------------------|-------------------|
|---------------------|-------------------|
|
|                                 ~~~~
|  Q.      Q.     Q      +H      +H
|-12------10-----19---|-(19)----(19)------|
|---------------------|-------------------|
|---------------------|-------------------|
|---------------------|-------------------|
|---------------------|-------------------|
|---------------------|-------------------|


   Instrumental Chorus
    Gtrs III, IV
       PM  PM|      PM  PM|   PM  PM     PM  PM|      PM  PM--------|
    Q  E E E E Q    E E E E E E E E   Q  E E E E Q    E E E E E E E E
||----------------|-----------------|---------------|-------------------||
||o---------------|-----------------|---------------|------------------o||
||----------------|-----------------|---------------|-------------------||
||----------------|-----------------|-5----5-----5--|---5---------------||
||o-2----2-----2--|---2-----2---2---|-3--3-3-3-3-3--|-3-3-3-3-5-3-2----o||
||--0--0-0-0-0-0--|-0-0-0-0-0-0-0-0-|---------------|---------------3---||


   Verse 1
                           1.,2.,3.              4.
   4/4
    Gtrs III, IV
    PM------------------------------------|         PM------|
    S S E E S S E E S S E   E S S E E E E E E  4x E S S E E E e Q
||------------------------|--------------------||------------------|
||o-----------------------|-------------------o||------------------|
||------------------------|--------------------||------------------|
||------------------------|--------------------||-------------7-7--|
||o-----------------------|-------------------o||-------------5-5--|
||--0-0-0---0-0-0---0-0-0-|---0-0-0---0---0----||---0-0-0---0------|


  C5         C5          E5         E5
  Gtrs III, IV
  W          +W          W          +W
  |           |          |           |
  /           /          /           /

  W           W          W           W
|----------|-----------|----------|-----------|
|----------|-----------|----------|-----------|
|----------|-----------|----------|-----------|
|----------|-----------|----------|-----------|
|----------|-----------|----------|-----------|
|----------|-----------|----------|-----------|


  C5         C5          G5/D       D/F#
  W          +W          W          W
  |           |          |          |
  /           /          /          /

  W           W          W          W
|----------|-----------|----------|------|
|----------|-----------|-8--------|-7----|
|----------|-----------|----------|------|
|----------|-----------|-5--------|-4----|
|----------|-----------|----------|------|
|----------|-----------|----------|------|


   Verse 2
                           1.,2.,3.              4.
   4/4
    Gtrs III, IV
    PM------------------------------------------------------|
    S S E E S S E E S S E   E S S E E E E E E  4x E S S E E E e Q
||------------------------|--------------------||------------------|
||o-----------------------|-------------------o||------------------|
||------------------------|--------------------||------------------|
||------------------------|--------------------||-------------7-7--|
||o-----------------------|-------------------o||-------------5-5--|
||--0-0-0---0-0-0---0-0-0-|---0-0-0---0---0----||---0-0-0---0------|


  C5         C5          E5           E5
  Gtrs III, IV           Gtr III
  W          +W          W            +W
  |           |          |             |
  /           /          /             /

                         Gtr IV
  PM
  W           W          H     H       H    H
|----------|-----------|------------|------------|
|----------|-----------|------------|------------|
|----------|-----------|------12----|-11----4----|
|----------|-----------|------------|------------|
|----------|-----------|------10----|--9----2----|
|----------|-----------|------------|------------|


  C5         C5           G5/D       D/F#
  W          +W           W          W
  |           |           |          |
  /           /           /          /

  W          +W           W          W
|----------|------------|----------|------|
|----------|------------|-8--------|-7----|
|-5--------|-(5)--------|----------|------|
|----------|------------|-5--------|-4----|
|-3--------|-(3)--------|----------|------|
|----------|------------|----------|------|


   Chorus
    Gtrs III, IV
       PM  PM|      PM  PM|   PM  PM     PM  PM|      PM  PM|   PM  PM
    Q  E E E E Q    E E E E E E E E   Q  E E E E Q    E E E E E E E E
||----------------|-----------------|---------------|-------------------||
||o---------------|-----------------|---------------|------------------o||
||----------------|-----------------|---------------|-------------------||
||----------------|-----------------|-5----5-----5--|---5-----5---5-----||
||o-2----2-----2--|---2-----2---2---|-3--3-3-3-3-3--|-3-3-3-3-3-3-3-3--o||
||--0--0-0-0-0-0--|-0-0-0-0-0-0-0-0-|---------------|-------------------||


  W          W          H    H      W
|----------|----------|-----------|----------|
|----------|----------|-----------|----------|
|----------|----------|-----------|----------|
|-2--------|-4--------|-9----7----|-5--------|
|-0--------|-2--------|-7----5----|-3--------|
|----------|----------|-----------|----------|


                            PM--------|
  W          W          E E E E E E E E
|----------|----------|--------------------|
|----------|----------|--------------------|
|----------|----------|--------------------|
|-2--------|-4--------|--------------------|
|-0--------|-2--------|-3-2-0-2------------|
|----------|----------|---------3-5-2-3----|


 Guitar Solo
   W               W
|----------------|------------------|
|----------------|------------------|
|----------------|------------------|
|----------------|-7----------------|
|--2-------------|-5----------------|
|--0-------------|------------------|
|
| Gtr IV
|       ~
|  Q.   H    +E    S S E E H    +E
|----------------|------------------|
|----------------|------------------|
|----------------|------------------|
|-------9----(9)-|-7-5-7-5----------|
|-/7-------------|---------5----(5)-|
|----------------|------------------|


                        PM----------------|
   W                    E  E  E  E  E E E  E
|--------------------|------------------------|
|--------------------|------------------------|
|--7-----------------|------------------------|
|--5-----------------|-10--9--7---------------|
|--------------------|----------10--9-7-6-----|
|--------------------|---------------------8--|
|
|  E  E E E  E  E Q     E  E  E  E  E E E  E
|--------------------|------------------------|
|--------------------|-13-12-10---------------|
|-12-11-9-9-/7-/7S9--|----------12-11-9s8-----|
|--------------------|--------------------10--|
|--------------------|------------------------|
|--------------------|------------------------|


   W                            W
|----------------------------|------------------------------|
|----------------------------|------------------------------|
|----------------------------|------------------------------|
|----------------------------|--7---------------------------|
|--2-------------------------|--5---------------------------|
|--0-------------------------|------------------------------|
|
| Gtr IV
|                  ~~~~~~~~~~                     ~~~~~~~~~~
|  S S  S  S S  S  H     +E     S  S  S  S  S  S  H     +E
|----------------------------|------------------------------|
|----------------------------|-------------12-14-15----(15)-|
|------------9-11-12----(12)-|-12-11-12-14------------------|
|-10-9-10-12-----------------|------------------------------|
|----------------------------|------------------------------|
|----------------------------|------------------------------|


   W
|--------------------------------------------------|
|--------------------------------------------------|
|--7-----------------------------------------------|
|--5-----------------------------------------------|
|--------------------------------------------------|
|--------------------------------------------------|
|
|  S  S  S  S  S  S  S  S  S  S  S  S  S  S  S  S
|--------------------------------------------------|
|-15-13-12----12-13-12----12-----------------------|
|----------14----------14----14-12-11-14-12-11-14--|
|--------------------------------------------------|
|--------------------------------------------------|
|--------------------------------------------------|


   PM----------------------------------------------
   E     E     E     E     E     E     E     E
|-------------------------------------------------|
|-------------------------------------------------|
|-------------------------------------------------|
|-10-----9-----7-----9-----------7----------------|
|-------------------------10-----------9----10----|
|-------------------------------------------------|
|
|                                      PM----------
|  S  S  S  S  S  S  S  S  S  S  S  S  S  S  S  S
|-------------------------------------------------|
|-------------------------------------------------|
|-12-11-------11----------------------------------|
|-------14-12----14-12-10-14-12-10----12-10-------|
|----------------------------------14-------14-12-|
|-------------------------------------------------|


 -------------------------------------------|
   E     E     E     E     E     E     E     E
|-------------------------------------------------|
|-------------------------------------------------|
|-------------------------------------------------|
|-------------------------------------------------|
|--3-----2-----------2----------------------------|
|--------------5-----------3-----5-----2-----3----|
|
|----------------------------------------------|
|  S  S  S  S  S  S  S  S  S  S  S  S  S  S  S  S
|-------------------------------------------------|
|-------------------------------------------------|
|-------------------------------------------------|
|-10----------------------------------------------|
|----14-12-10-14-12-10----12-10-------10----------|
|----------------------14-------14-12----14-12-10-|


  E5open
  Gtr III
   Q     E E E E E E     E     E E E  E     E E  E
   |     | | | | | |     |     | | |  |     | |  |
   /     / / / / / /     /     / / /  /     / /  /

  Gtr IV
   ~~~~~~~~~~~~~~~~~~~~~~~~~~~~
   W                    +H            Q.         E
|--------------------|-----------------------------|
|-15b17--------------|-(15)b17-------15pb17r====12-|
|--------------------|-----------------------------|
|--------------------|-----------------------------|
|--------------------|-----------------------------|
|--------------------|-----------------------------|


  C5
   Q   E  E  E E  E     E        E  E E E E E E E
   |   |  |  | |  |     |        |  | | | | | | |
   /   /  /  / /  /     /        /  / / / / / / /

                                 ~~~~
   Q.     Q.      S  S  S  S     W
|-15-----14------14h15p14----|--------------------|
|-------------------------15-|-[15]---------------|
|----------------------------|--------------------|
|----------------------------|--------------------|
|----------------------------|--------------------|
|----------------------------|--------------------|


  E5open
   Q           E     E     E     E     E     E       E     E     E     E  E     E     E     E
   |           |     |     |     |     |     |       |     |     |     |  |     |     |     |
   /           /     /     /     /     /     /       /     /     /     /  /     /     /     /

   S  S  S  S  S  S  S  S  S  S  S  S  S  S  S  S    S  S  S  S  S  S  E  S  S  S  S  S  S  S  S
|-------------------------------------------------|----------------------------------------------|
|-------------------------------------------------|----------------------------------------------|
|-12h16p12h16p12----12h17p12h17p12----12h16p12h16p|=12----12h17p12----12-16h17p16p14-------------|
|----------------14----------------14-------------|----14----------14----------------17p16p14----|
|-------------------------------------------------|-------------------------------------------17p|
|-------------------------------------------------|----------------------------------------------|
|
| Gtr V
|  W                                                 W
|-------------------------------------------------|----------------------------------------------|
|-------------------------------------------------|----------------------------------------------|
|-------------------------------------------------|----------------------------------------------|
|-------------------------------------------------|----------------------------------------------|
|-------------------------------------------------|----------------------------------------------|
|-------------------------------------------------|----------------------------------------------|


  C5
   Q  E E E E E E    E     E     E     E     E     E     E     E
   |  | | | | | |    |     |     |     |     |     |     |     |
   /  / / / / / /    /     /     /     /     /     /     /     /

   ~~
   W                 S  S  S  S  S  S  S  S  S  S  S  S  S  S  S  S
|-----------------|-------------------------------------------15-17--|
|-----------------|-------------------------------13-15-16-18--------|
|-----------------|----------------------12-14-15--------------------|
|-----------------|-------------12-13-15-----------------------------|
|-15--------------|-13-15-13-15--------------------------------------|
|-----------------|--------------------------------------------------|
|
|  W                 S  S  S  S  S  S  S  S  S  S  S  S  S  S  S  S
|-----------------|--------------------------------------------------|
|-----------------|-------------------------------------------17-18--|
|-----------------|-------------------------------14-14-17-19--------|
|-----------------|----------------------14-15-17--------------------|
|-----------------|-------------14-15-17-----------------------------|
|-----------------|-15-17-15-17--------------------------------------|


 Harmony Solo
  Gtr III
   W           +W                W                 +W
|-----------|-----------------|------------------|------------|
|-----------|-----------------|------------------|------------|
|-----------|-----------------|------------------|------------|
|-----------|-----------------|--8---------------|-(8)--------|
|--5--------|--(5)------------|--6---------------|-(6)--------|
|--3--------|--(3)------------|------------------|------------|
|
| Gtr IV
|  ~~~~~~~~~~~~~~~~
|  W           +H      Q   Q     H.       +E   E    W
|-18--------|-(18)----17--18--|-15-------(15)-13-|-15---------|
|-----------|-----------------|------------------|------------|
|-----------|-----------------|------------------|------------|
|-----------|-----------------|------------------|------------|
|-----------|-----------------|------------------|------------|
|-----------|-----------------|------------------|------------|
|
| Gtr V
|  ~~~~~~~~~~~~~~~~
|  W           +H      Q   Q     H.       +E   E    W
|-----------|-----------------|------------------|------------|
|-20--------|-(20)----18--20--|-16-------(16)-15-|-16---------|
|-----------|-----------------|------------------|------------|
|-----------|-----------------|------------------|------------|
|-----------|-----------------|------------------|------------|
|-----------|-----------------|------------------|------------|


                                                  PM--------|
   W          +W                 W           +Q   E E E E E E
|-----------|-----------------|-----------|-------------------|
|-----------|-----------------|-----------|-------------------|
|-----------|-----------------|-----------|-------------------|
|-----------|-----------------|--8--------|--(8)--------------|
|--5--------|-(5)-------------|--6--------|--(6)--6-5-3-------|
|--3--------|-(3)-------------|-----------|-------------6-5-3-|
|
|  ~~                            ~~~~~~~~~~~~~~~~
|  W           Q.    Q.    Q     W           +W
|-18--------|-----------------|-----------|-------------------|
|-----------|-------------15--|-----------|-------------------|
|-----------|-14----15--------|-12--------|-(12)--------------|
|-----------|-----------------|-----------|-------------------|
|-----------|-----------------|-----------|-------------------|
|-----------|-----------------|-----------|-------------------|
|
|  ~~                            ~~~~~~~~~~~~~~~~
|  W           Q.    Q.    Q     W           +W
|-----------|-----------------|-----------|-------------------|
|-20--------|-----------------|-----------|-------------------|
|-----------|-------------15--|-----------|-------------------|
|-----------|-15----17--------|-13--------|-(13)--------------|
|-----------|-----------------|-----------|-------------------|
|-----------|-----------------|-----------|-------------------|


 Verse 3
  Gtrs III, IV
     PM  PM|      PM  PM|   PM  PM     PM  PM|      PM  PM--------|
  Q  E E E E Q    E E E E E E E E   Q  E E E E Q    E E E E E E E E
|---------------|-----------------|---------------|-----------------|
|---------------|-----------------|---------------|-----------------|
|---------------|-----------------|---------------|-----------------|
|---------------|-----------------|-5----5-----5--|---5-------------|
|-2----2-----2--|---2-----2---2---|-3--3-3-3-3-3--|-3-3-3-3-5-3-2---|
|-0--0-0-0-0-0--|-0-0-0-0-0-0-0-0-|---------------|---------------3-|


     PM  PM|      PM  PM|   PM  PM-
  Q  E E E E Q    E E E E E E E E
|---------------|-----------------|
|---------------|-----------------|
|---------------|-----------------|
|---------------|-----------------|
|-2----2-----2--|---2-----2---2---|
|-0--0-0-0-0-0--|-0-0-0-0-0-0-0-0-|


 -------------------|             PM--|   PM--|
  S S E S S E S S S S E E   +E  E S S S E S S S Q
|-------------------------|--------------------------|
|-------------------------|--------------------------|
|-------------------------|--------------------------|
|-----5-----4---------5-7-|-(7)----------------------|
|-2-3---3-2---3-2-3-2-3-5-|-(5)---3-3-3---3-3-3------|
|-------------------------|--------------------------|


  C5                      E5
  Gtr III
  W          +W           W               +W
  |           |           |                |
  /           /           /                /

  Gtr IV
                               PM--------------------------|
  W          +W           H    E E  E E    E  E E E  E E E E
|----------|------------|---------------|--------------------|
|----------|------------|---------------|--------------------|
|----------|------------|---------------|--------------------|
|-5--------|-(5)--------|-9-----------9-|--7------7----------|
|-3--------|-(3)--------|-7----7-9-10---|----10-9---10-9-7-5-|
|----------|------------|---------------|--------------------|


  C5                      G5/D        F#5/C#
  W          +W            W           W
  |           |            |           |
  /           /            /           /

  W          +W            W           W
|----------|------------|-----------|-------|
|----------|------------|-/8--------|-\7----|
|----------|------------|-/7--------|-\6----|
|-5--------|-(5)--------|-/5--------|-\4----|
|-3--------|-(3)--------|-----------|-------|
|----------|------------|-----------|-------|


   Chorus 2
    Gtrs III, IV
       PM  PM|      PM  PM|   PM  PM     PM  PM|      PM  PM|   PM  PM
    Q  E E E E Q    E E E E E E E E   Q  E E E E Q    E E E E E E E E
||----------------|-----------------|---------------|-------------------||
||o---------------|-----------------|---------------|------------------o||
||----------------|-----------------|---------------|-------------------||
||----------------|-----------------|-5----5-----5--|---5-----5---5-----||
||o-2----2-----2--|---2-----2---2---|-3--3-3-3-3-3--|-3-3-3-3-3-3-3-3--o||
||--0--0-0-0-0-0--|-0-0-0-0-0-0-0-0-|---------------|-------------------||


  W          W          H    H      W
|----------|----------|-----------|----------|
|----------|----------|-----------|----------|
|----------|----------|-----------|----------|
|-2--------|-4--------|-9----7----|-5--------|
|-0--------|-2--------|-7----5----|-3--------|
|----------|----------|-----------|----------|


                            PM--------|
  W          W          E E E E E E E E
|----------|----------|--------------------|
|----------|----------|--------------------|
|----------|----------|--------------------|
|-2--------|-4--------|--------------------|
|-0--------|-2--------|-3-2-0-2------------|
|----------|----------|---------3-5-2-3----|


   Interlude
    Gtrs III, IV
    W          +W           W          +W
||-----------|------------|----------|---------||
||o----------|------------|----------|--------o||
||-----------|------------|----------|---------||
||-----------|------------|-5--------|-(5)-----||
||o-2--------|-(2)--------|-3--------|-(3)----o||
||--0--------|-(0)--------|----------|---------||


    W           +W            W           +W
|------------|-------------|-----------|---------|
|------------|-------------|-----------|---------|
|------------|-------------|-----------|---------|
|-\10--------|-(10)--------|-10--------|-(10)----|
|--\8--------|--(8)--------|--8--------|--(8)----|
|------------|-------------|-----------|---------|


  PM--------------------------------------------------------------|
  S S S S S S S S S S S S S S S S   S S S S S S S S S S S S S S S S
|---------------------------------|---------------------------------|
|---------------------------------|---------------------------------|
|---------------------------------|---------------------------------|
|---------------------------------|---------------------------------|
|-7-7-7-7-7-7-7-7-7-7-7-7-7-7-7-7-|-7-7-7-7-7-7-7-7-7-7-7-7-7-7-7-7-|
|---------------------------------|---------------------------------|


                            PM-------------------------------
   W           +W           S S S S S S S S S S S S S S S S
|-----------|-------------|---------------------------------|
|-----------|-------------|---------------------------------|
|-----------|-------------|---------------------------------|
|-10--------|-(10)--------|---------------------------------|
|--8--------|--(8)--------|-7-7-7-7-7-7-7-7-7-7-7-7-7-7-7-7-|
|-----------|-------------|---------------------------------|


 -------------------------------|
  S S S S S S S S S S S S S S S S
|------------------------------------|
|------------------------------------|
|------------------------------------|
|------------------------------------|
|-7-7-7-7-7-7-7-7-7-7-7-7-7-7-7-7----|
|------------------------------------|


  E5             B5          E5
  Gtr III
   Q        E     Q        E  Q
   |              |           |
   /              /           /

  Gtr IV
   S  S  E  S  S  E  S  S  E  Q
|--------------------------------|
|--------------------------------|
|-------------------14-16-17-16--|
|-14-16-17-16-17-19--------------|
|--------------------------------|
|--------------------------------|


  E5             B5          E5    E5             B5          E5
   Q        E     Q        E  Q     Q        E     Q        E  Q
   |              |           |     |              |           |
   /              /           /     /              /           /

   S  S  E  S  S  E  S  S  E  Q     S  S  E  S  S  E  S  S  E  Q
|--------------------------------|--------------------------------|
|--------------------------------|--------------------------------|
|-------------------14-16-17-16--|-------------------14-16-17-16--|
|-14-16-17-16-17-19--------------|-14-16-17-16-17-19--------------|
|--------------------------------|--------------------------------|
|--------------------------------|--------------------------------|


           A5           G5    G5  F#5
                             2/4
   Q        Q   Q        Q     Q   Q
            |            |     |   |
            /            /     /   /

   S  S  E  Q   S  S  E  Q     Q   Q
|---------------------------|---------|
|---------------------------|---------|
|-16-17-16-14--14-16-14-12--|-12--11--|
|---------------------------|---------|
|---------------------------|---------|
|---------------------------|---------|


   Voice and Keyboard part
    E5open
   4/4
     Q   H.               W
     |
     /

    Gtr IV
     Q   H.               W
||--------------------|-------------------|
||o-------------------|-------------------|
||--------------------|-------------------|
||--14----------------|-------------------|
||o-------------------|-------------------|
||--------------------|-------------------|
|
|   Gtr II
|    Q.      Q.    Q     +Q    Q   Q   Q
||--------------------|-------------------|
||o-------------------|-------------------|
||--------------------|-------------------|
||--14------13--------|-------14--13------|
||o---------------14--|-(14)----------14--|
||--------------------|-------------------|


  Gtr II
   Q.    Q.    Q     +Q    Q   Q   Q     Q.    Q.    Q
|-----------------|-------------------|-----------------|
|-----------------|-------------------|-----------------|
|-----------------|-----------13--14--|-14----13--------|
|-------13----14--|-(14)--16----------|-------------14--|
|-16--------------|-------------------|-----------------|
|-----------------|-------------------|-----------------|


                   1.
   Q   Q   Q   Q     Q.    Q.    Q
|-----------------|-----------------|
|-----------------|-----------------|
|-----14--13------|-------13----14--|
|-14----------14--|-16--------------|
|-----------------|-----------------|
|-----------------|-----------------|


                       2.
   +Q    Q   Q   Q       W           E  Q   Q.    Q
|--------------------||-----------|------------------|
|-------------------o||-----------|------------------|
|-(14)--13------13---||-----------|--------14----16--|
|-----------16-------||-16--------|-16-16------------|
|-------------------o||-----------|------------------|
|--------------------||-----------|------------------|


 Bridge
  D5                     Bb5                    D5
 4/4
  Gtrs III, IV
  W          +W          W          +W          W          +W
  |           |          |           |          |           |
  /           /          /           /          /           /

  W           W          W           W          W           W
|----------|-----------|----------|-----------|----------|-------|
|----------|-----------|----------|-----------|----------|-------|
|----------|-----------|----------|-----------|----------|-------|
|----------|-----------|----------|-----------|----------|-------|
|----------|-----------|----------|-----------|----------|-------|
|----------|-----------|----------|-----------|----------|-------|


  F5         C5VIII
             Gtr III
  W           W
  |           |
  /           /

             Gtr IV
              |-------------3--------------|
  W           E  E  E  E  E  E  E E E  E E E
|----------|---------------------------------|
|----------|-13p10----------10-11-8--------8-|
|----------|-------10----10---------9----9---|
|----------|----------10--------------10-----|
|----------|---------------------------------|
|----------|---------------------------------|


  Gtrs III, IV
  W          +W           q  q  q  q    q  q  q  q
|----------|------------|-------------|-------------|
|----------|------------|-------------|-------------|
|----------|------------|-------------|-------------|
|----------|------------|-7--7--7--7--|-5--5--5--5--|
|-8--------|-(8)--------|-5--5--5--5--|-3--3--3--3--|
|-6--------|-(6)--------|-------------|-------------|


  W          +W           W          W
|----------|------------|----------|------|
|----------|------------|----------|------|
|----------|------------|----------|------|
|----------|------------|-5--------|-7----|
|-8--------|-(8)--------|-3--------|-5----|
|-6--------|-(6)--------|----------|------|


   Out Chorus
    Gtrs III, IV
       PM  PM|      PM  PM|   PM  PM     PM  PM|      PM  PM|   PM  PM
    Q  E E E E Q    E E E E E E E E   Q  E E E E Q    E E E E E E E E
||----------------|-----------------|---------------|-------------------||
||o---------------|-----------------|---------------|------------------o||
||----------------|-----------------|---------------|-------------------||
||----------------|-----------------|-8----8-----8--|---8-----8---8-----||
||o-5----5-----5--|---5-----5---5---|-6--6-6-6-6-6--|-6-6-6-6-6-6-6-6--o||
||--3--3-3-3-3-3--|-3-3-3-3-3-3-3-3-|---------------|-------------------||


    W          W           H     H
||-----------|----------|-------------|
||o----------|----------|-------------|
||-----------|----------|-------------|
||--5--------|-7--------|-12----10----|
||o-3--------|-5--------|-10-----8----|
||-----------|----------|-------------|


                                       PM--------|
  W          W          W          E E E E E E E E
|----------|----------|----------|------------------||
|----------|----------|----------|-----------------o||
|----------|----------|----------|------------------||
|-8--------|-5--------|-7--------|------------------||
|-6--------|-3--------|-5--------|-6-5---5---------o||
|----------|----------|----------|-----8---6-8-5-6--||


      PM--------|       PM--------|
  E E E E E E E E   E E E E E E E E   H.      +E  S S   q   H.
|-----------------|-----------------|-----------------|-----------*|
|-----------------|-----------------|-----------------|-----------*|
|-----------------|-----------------|-----------------|-----------*|
|-----------------|-----------------|-----------------|-----------*|
|-6-5---5---------|-6-5---5---------|-5-------(5)-----|-5\--------*|
|-----8---6-8-5-6-|-----8---6-8-5-6-|-3-------(3)-3-3-|-3\--------*|



Duration Legend
---------------
W - whole; H - half; Q - quarter; E - 8th; S - 16th; T - 32nd; X - 64th; a - acciaccatura
+ - note tied to previous; . - note dotted; .. - note double dotted
Uncapitalized letters represent notes that are staccato (1/2 duration)
Irregular groupings are notated above the duration line
Duration letters will always appear directly above the note/fret number it represents the
duration for.  Duration letters with no fret number below them represent rests.  Multi-
bar rests are notated in the form Wxn, where n is the number of bars to rest for.  Low
melody durations appear below the staff

Tablature Legend
----------------
 h   - hammer-on
 p   - pull-off
 b   - bend
 pb  - pre-bend
 r   - bend release (if no number after the r, then release immediately)
 /\  - slide into or out of (from/to "nowhere")
 s   - legato slide
 S   - shift slide
 - natural harmonic
[n]  - artificial harmonic
n(n) - tapped harmonic
 ~   - vibrato
 tr  - trill
 T   - tap
 TP  - trem. picking
 PM  - palm muting
\n/  - tremolo bar dip; n = amount to dip
 \n  - tremolo bar down
 n/  - tremolo bar up
/n\  - tremolo bar inverted dip
 =   - hold bend; also acts as connecting device for hammers/pulls
 <> - volume swell (louder/softer)
 x   - on rhythm slash represents muted slash
 o   - on rhythm slash represents single note slash

Misc Legend
-----------
 |  - bar
||  - double bar
||o - repeat start
o|| - repeat end
*|  - double bar (ending)
 :  - bar (freetime)
 $  - Segno
 &  - Coda
Tempo markers -  = BPM(8/16=s8/s16), where s8 = swing 8ths, s16 = swing 16ths

Tap to rate this tab
 
# A B C D E F G H I J K L M N O P Q R S T U V W X Y Z