Song name
# A B C D E F G H I J K L M N O P Q R S T U V W X Y Z

Sonic Boom Six - Monkey See Monkey Do tab

Sonic Boom Six - Monkey See Monkey Do
Album: Sounds to Consume
sfc


this is played through out the song (synctopated)
e--x--2--x--2--x--2--x--2--|
B--x--2--x--2--x--2--x--4--|
G--x--3--x--3--x--3--x--4--|
D--x--4--x--4--x--4--x--4--|
A--x--4--x--4--x--4--x--2--|
E--x--2--x--2--x--2--x--x--|


at 1:41 this is played
e---------------------|
B---------------------|
G--3--6~-6--8-8-8/6-3-|
D--4--7~-7--9-9-9/7-4-|
A---------------------|
E---------------------|

at 3:02 this is played til end
e-----------------|---------------|
B-----------------|---------------|
G-----------------|---------------|
D--44444444-6-7-6-|--44444444-2-4-|
A-----------------|---------------|
E-----------------|---------------|

END
Tap to rate this tab
# A B C D E F G H I J K L M N O P Q R S T U V W X Y Z