Song name
# A B C D E F G H I J K L M N O P Q R S T U V W X Y Z

Sonny Rollins - St Thomas tab

-------------------------------------------------------------------------------
			     St. Thomas
-------------------------------------------------------------------------------
Tabbed by: Ardie12
Email: Ardie12@hotmail.com

Tuning: standard

e|---------------------------------|
B|---------------------------------|
G|-----5-4------------------5-4-5--|
D|--5-------7--5-7--2-3--5---------|
A|---------------------------------|
E|---------------------------------|

e|---------------------------------|
B|---------------------------------|
G|-----5-4------------------5-4-5--|
D|--5-------7--5-7--2-3--5---------|
A|---------------------------------|
E|---------------------------------|

e|------------------------------------------------|
B|-5--6--8---6--5-----5---------------------------|
G|-----------------7-----7--5--7-5--------5-4-5---|
D|----------------------------------7--5----------|
A|------------------------------------------------|
E|------------------------------------------------|
Tap to rate this tab
# A B C D E F G H I J K L M N O P Q R S T U V W X Y Z