Song name
# A B C D E F G H I J K L M N O P Q R S T U V W X Y Z

Soulfly - Brasil tab

Help us improve GuitareTab! Take a short survey!
----------------------------------------------------------------------------
			     BRASIL - Soulfly
----------------------------------------------------------------------------
Tabbed by:KemA
Email:darkvador2004@aol.com

Tuning:A E A D Gb B

Riff 1

|---------------------------------------------------------------------------|
|---------------------------------------------------------------------------|
|---------------------------------------------------------------------------|
|-1-0---4-3---1-0---4-3---1-0---4-3---1-0---4-3-----------------------------|
|-1-0---4-3---1-0---4-3---1-0---4-3---1-0---4-3-----------------------------|
|-1-0-0-4-3-0-1-0-0-4-3-0-1-0-0-4-3-0-1-0-0-4-3-\16-------------------------|

Riff 2

|---------------------------------------------------------------------------|
|---------------------------------------------------------------------------|
|---------------------------------------------------------------------------|
|-0-0---------------------0-0-0---------------------------------------------|
|-0-0---------------------0-0-0---------------------------------------------|
|-0-0-+3-0-+3-0-+3-0-+3---0-0-0-+3-0-+3-0-+3-0-+3---------------------------|
PM. .    .    .    .      . . .    .    .    .

Riff 3

|---------------------------------------------------------------------------|
|---------------------------------------------------------------------------|
|---------------------------------------------------------------------------|
|---------------------------------------------------------------------------|
|---------------------------------------------------------------------------|
|-131313131313-0-131313131313-0-131313131313-0-131313131313-0---------------|

Riff 4

|----------------------------------------------------------------------------|
|----------------------------------------------------------------------------|
|----------------------------------------------------------------------------|
|----------------------------------------------------------------00000000000-|
|----------------------------------------------------------------00000000000-|
|-1-4b5p1-11-4b5p1-4b5p1--(again and listen to music for timing)-00000000000-|
                                                               PM...........
Riff 5

|---------------------------------------------------------------------------|
|---------------------------------------------------------------------------|
|---------------------------------------------------------------------------|
|---------------------------------------------------------------------------|
|---------------------------------------------------------------------------|
|-4b5-1-4b5-1-4b54b5-1-1----(again and again till the end)------------------|

Riff 6

|---------------------------------------------------------------------------|
|---------------------------------------------------------------------------|
|---------------------------------------------------------------------------|
|-0-0-0-0-0-0-0-0--------------------0-0-0-0-0-0-0-0------------------------|
|-0-0-0-0-0-0-0-0--------------------0-0-0-0-0-0-0-0------------------------|
|-0-0-0-0-0-0-0-0-(a few times)-then-0-0-0-0-0-0-0-0------------------------|
PM. . . . . . . .

| b  bend
| /  slide up
| \  slide down
| h  hammer-on
| p  pull-off
| ~  vibrato
| +  harmonic
| PM palm mute

i think it's quite well but if you think it's not, send me a mail to
darkvador2004@aol.com       thanks
KemA
Related for Brasil tab