Guitaretab - guitar tabs
Song name
# A B C D E F G H I J K L M N O P Q R S T U V W X Y Z

Soundgarden - Day I Tried To Live tab

The Day I Tried to Live
By: Soundgarden


Guitar 1     play 6 times
e|-10-9-7-10/4-4-4/7-7-------------------------------------------------------|
B|---------------------------------------------------------------------------|
G|---------------------------------------------------------------------------|
D|---------------------------------------------------------------------------|
A|---------------------------------------------------------------------------|
E|-7-7-7--7-0--0-0-----------------------------------------------------------|


Guitar 2     play 4 times
e|---------10/4--7-9-9/7-----------------------------------------------------|
B|---------------------------------------------------------------------------|
G|---------------------------------------------------------------------------|
D|---------------------------------------------------------------------------|
A|---------------------------------------------------------------------------|
E|---------------------------------------------------------------------------|

[ Tab from: http://www.guitaretab.com/s/soundgarden/17931.html ]
After that is play 4 times back to back, guitar 2 plays this 4 times
e|-15/10-15/10-15/10-15/7------------------------------------------------------|
B|-----------------------------------------------------------------------------|
G|-----------------------------------------------------------------------------|
D|-----------------------------------------------------------------------------|
A|-----------------------------------------------------------------------------|
E|-----------------------------------------------------------------------------|

Then play this twice for the intro, it is also the verse
e|-----------------------------------------------------------------------------|
B|-----------------------------------------------------------------------------|
G|-----------------------------------------------------------------------------|
D|-----------------------------------------------------------------------------|
A|---14-14-14-14-14---14-13-12-11-11-11-11-11-----10-10-10-10-10---------------|
E|-0-12-12-12-12-12---12-11-10--9--9--9--9--9---0--8--8--8--8--8---------------|

e|---------------------------------------------------------------------------|
B|---------------------------------------------------------------------------|
G|---------------------------------------------------------------------------|
D|---------------------------------------------------------------------------|
A|---9-9-9-8-7-7-7-----------------------------------------------------------|
E|-0-7-7-7-6-5-5-5-----------------------------------------------------------|
Related for Day I Tried To Live tab
Advertisement will be closed in 10 seconds