Song name
# A B C D E F G H I J K L M N O P Q R S T U V W X Y Z

Soundgarden - Mailman tab

MAILMAN by Soundgarden
from Superunknown


Tuning(low to high:C,G,D,G,B,E)


  Intro

E--10--10--10--10--10--10--10\---
B--10--10--10--10--10--10--10\---
G--12--12--12--12--12--12--12\sl-
D--13--13--13--13--13--13--13\---
G--10--10--10--10--10--10--10\---
C--10--10--10--10--10--10--10\---


E-------------------------------------------------
B-------------------------------------------------
G-------------------------------------------------
D--5------------5------------5-----------10--9--8-
G--5------------5------------5-----------10--9--8-
C-----0------0-----0------0-----0-----0-----------


E-------------------------------------------------
B-------------------------------------------------
G-------------------------------------------------
D--5------------5------------5------------3-------
G--5------------5------------5------------3-------
C-----0------0-----0------0-----0-----0------4--3-


on second chorus there is this variation

E-------------------------------------------------
B-------------------------------------------------
G-------------------------------------------------
D--5------------5------------5------------3--2--1- X 4
G--5------------5------------5------------3--2--1-
C-----0------0-----3------3-----5-----5-----------


E----------------------------8--8--------------
B----------------------------8--8--------------
G---------------------------10-10--------------
D--5------------5------------8--8-------------- X 3
G--5------------5------------8--8---4--4-------
C-----0------0-----0------0--8--8---4--4--3--3-

Tap to rate this tab
# A B C D E F G H I J K L M N O P Q R S T U V W X Y Z