Song name
# A B C D E F G H I J K L M N O P Q R S T U V W X Y Z

Soundgarden - Mailman tab

Mailman

Soundgarden

Tabbed by:Brownbear93

Tuning: C G D G B E


Intro:

 G1
|-------------------------|
|-------------------------|
|--3-3-3-3-3-3-3\---------|
|--3-3-3-3-3-3-3\---------|
|--3-3-3-3-3-3-3\---------|
|--3-3-3-3-3-3-3\---------|
|
|G2
|-------------------------|
|-------------------------|
|-------------------------|
|-15-15-15-15-15-15-15\---|
|-15-15-15-15-15-15-15\---|
|-15-15-15-15-15-15-15\---|

1st Solo:
G3 
|--------------------------------------------------------|
|--5-----------------------------------------------------|
|--7b------r--5-5-----5-5-5-x---5------------------------|
|---------------------------x-x---3-2-1----b---------r---|
|-----------------------------x--------------------------|
|--------------------------------------------------------|

|--------------------------------------------------------|
|------------8-8-8-8-8/----------------------------------|
|---5--5~----8-8-8-8-8/---7b--7b----r--5-5~--------------|
|------------8-8-8-8-8/----------------------------------|
|--------------------------------------------------------|
|--------------------------------------------------------|

Main Riff G1:x3
|------------------------------------------------------------------------|
|------------------------------------------------------------------------|
|------------------------------------------------------------------------|
|--5--------5--------5---------------5--------5--------5-----------------|
|--5--------5--------5---------------5--------5--------5-------3br-------|
|--0-0----0---0----0---0---0-5-4-3~--0-0----0---0----0---0---0-----4-3~--|

Ending 1 and 2:
|--------------------------------------------------------------|       
|--------------------------------------------------------------|
|-------------------3-3-3-3-3/---------------------------------| 
|--5--------5-------3-3-3-3-3/---5--------5------------3/5-----|
|--5--------5-------3-3-3-3-3/---5--------5------------3/5-----|
|--0-0----0---0---0-3-3-3-3-3/---0-0----0---0----0-5-3---------|

Ending 3:
|-----------------------------------------------|
|-----------------------------------------------|
|--------------------3-3-3-3-3/-----------------|
|--5--------5--------3-3-3-3-3/---5--------5----|
|--5--------5--------3-3-3-3-3/---5--------5--0-|
|--0-0----0---0----0-3-3-3-3-3/---0-0----0----0-|



Main Riff G2:x3
|------------------------------------------------------------------------|
|------------------------------------------------------------------------|
|----------------------------5-4-3---------------------------------------|
|--5--------5--------5-------3-2-1----5------5--------5------------------|
|--5--------5--------5----------------5------5--------5-------3br--------|
|--0-0----0---0----0---0---0--------0-0----0---0----0---0---0-----4-3~---|

Ending 1 and 2:
|----------------------------------------------------------------|
|----------------------------------------------------------------|
|----------------------------------------------------------------|
|--5--------5-------15-15-15-15-15\---5--------5------------3/5--|
|--5--------5-------15-15-15-15-15\---5--------5------------3/5--|
|--0-0----0---0---0-15-15-15-15-15\---0-0----0---0----0-5-3------|

Ending 3:
|-----------------------------------------------------|
|-----------------------------------------------------|
|-----------------------------------------------------|
|--5--------5--------15-15-15-15-15\---5--------5-----|
|--5--------5--------15-15-15-15-15\---5--------5--0--|
|--0-0----0---0----0-15-15-15-15-15\---0-0----0----0--|


Chorus:
|------------------------------------------------------------------|
|------------------------------------------------------------------|
|--------------1--/3-3-0-0--x-5-0--------------1--/3-3-0-0--x-5-0--|
|--5/3-3-3-x---1--/3-3-0-0--x-5-0--5/3-3-3-x---1--/3-3-0-0--x-5-0--|
|--5/3-3-3-x---1--/3-3-0-0--x-5-0--5/3-3-3-x---1--/3-3-0-0--x-5-0--|
|--5/3-3-3-x-----------------------5/3-3-3-x-----------------------|

|----------------------------------|
|----------------------------------|
|--------------1--/3-3-0-0-0-0-----|
|--5/3-3-3-x---1--/3-3-0-0-0-0-----|
|--5/3-3-3-x---1--/3-3-0-0-0-0-----|
|--5/3-3-3-x-----------------------|


Main Riff:x3

G3:
|-------------------------------------------|
|--3--------------------------3-------------|
|--5b-------r~----------------5b--------r~--|
|-------------------------------------------|
|-------------------------------------------|
|-------------------------------------------|
 

2nd Chorus:
|------------------------------------------------------------------|
|------------------------------------------------------------------|
|--------------1--/3-3-0-0--x-5-0--------------1--/3-3-0-0--x-5-0--|
|--5/3-3-3-x---1--/3-3-0-0--x-5-0--5/3-3-3-x---1--/3-3-0-0--x-5-0--|
|--5/3-3-3-x---1--/3-3-0-0--x-5-0--5/3-3-3-x---1--/3-3-0-0--x-5-0--|
|--5/3-3-3-x-----------------------5/3-3-3-x-----------------------|

|----------------------------------|
|----------------------------------|
|--------------1--/3-3-0-0-0-0-----|
|--5/3-3-3-x---1--/3-3-0-0-0-0-----|
|--5/3-3-3-x---1--/3-3-0-0-0-0-----|
|--5/3-3-3-x-----------------------|

G2
|----------------------------------|
|----------------------------------|x3
|----5---5-5---5-----5---5-5-5-----|
|--8---8-----8-----8---8-------5---|
|----------------------------------|
|----------------------------------|


Post Chorus:
G1
|-------------------------------------|
|-------------------------------------|
|-------------------------------------|x4
|--5--------5--------5--------3-2-1---|
|--5--------5--------5------5-3-2-1---|
|--0-0----0---3----3---5----5---------|

G2
|-------------------------------------------|
|--3--------------------------3-------------|
|--5b-------r~----------------5b--------r~--|
|-------------------------------------------|
|-------------------------------------------|
|-------------------------------------------|


Bridge:
G1
|---------------------------------------------------------------------------------------------|
|---------------------------------------------------------------------------------------------|
|-------------------3-3----------------------------3-3----------------------------3-3---------|
|-5--------5--------3-3----------5--------5--------3-3----------5--------5--------3-3---------|
|-5--------5--------3-3----------5--------5--------3-3----------5--------5--------3-3---------|
|-0-0----0---0----0-3-3--4-3-3~--0-0----0---0----0-3-3--4-3-3~--0-0----0---0----0-3-3--4-3-3~-|

|-----------------------------------|
|-----------------------------------|
|-------------------3-3-3-3-3-3-3\--|
|-5--------5--------3-3-3-3-3-3-3\--|
|-5--------5--------3-3-3-3-3-3-3\--|
|-0-0----0---0----0-3-3-3-3-3-3-3\--|

Synth?? part:
|------------------------------------------------------------------------------------------|
|------------------------------------------------------------------------------------------|
|---5-----8/10---12------5------8/10---12------5------8/10---12------5------15~----19b\----|
|------------------------------------------------------------------------------------------|
|------------------------------------------------------------------------------------------|
|------------------------------------------------------------------------------------------|


Main Riff:x2


3rd Chorus:
|------------------------------------------------------------------|
|------------------------------------------------------------------|
|--------------1--/3-3-0-0--x-5-0--------------1--/3-3-0-0--x-5-0--|
|--5/3-3-3-x---1--/3-3-0-0--x-5-0--5/3-3-3-x---1--/3-3-0-0--x-5-0--|
|--5/3-3-3-x---1--/3-3-0-0--x-5-0--5/3-3-3-x---1--/3-3-0-0--x-5-0--|
|--5/3-3-3-x-----------------------5/3-3-3-x-----------------------|

|----------------------------------|
|----------------------------------|
|--------------1--/3-3-0-0-0-0-----|
|--5/3-3-3-x---1--/3-3-0-0-0-0-----|
|--5/3-3-3-x---1--/3-3-0-0-0-0-----|
|--5/3-3-3-x-----------------------|

G2
|----------------------------------|
|----------------------------------|x3
|----5---5-5---5-----5---5-5-5-----|
|--8---8-----8-----8---8-------5---|
|----------------------------------|
|----------------------------------|


Post Chorus: (backing for Solo)
G1
|-------------------------------------|
|-------------------------------------|
|-------------------------------------|x6
|--5--------5--------5--------3-2-1---|
|--5--------5--------5------5-3-2-1---|
|--0-0----0---3----3---5----5---------|

|----------------------|
|----------------------|
|-----3-3--------------|
|-----3-3----------5-5-|
|-----3-3----------5-5-|
|---0-3-3--4-3-3~--0-0-|


Solo:
G2
|-<12>--------------------------------0-----------------------------------|
|-<12>----------------------11tr--\-x-0-x-------------x-3-----------------|
|-<12>--7--9---12\----------12tr--\-x-0-x-x-5-x-x-5-0-x-5b----(5)-r----3--|
|-------7-------------------------------x-x-5-x-x-5-0----------------5----|
|--------------------x\---------------------------------------------------|
|--------------------x\---------------------------------------------------|

|------------------------------------------------------------------------------------|
|------------------------------------------------------------------------------------|
|--7b---rb--rb-x-3h5p3br~-x---------x-------x-3-5-5b-x-x-3-5p3---5p3---3h5p3---5b----|
|-------------------------x-x--5-3b-x-3-5-x-x------------------5-----5-------5-------|
|---------------------------x-------------x------------------------------------------|
|------------------------------------------------------------------------------------|



************************************

| /   slide up
| \   slide down
| h   hammer-on
| p   pull-off
| ~   vibrato
| +   harmonic
| x   Mute note
| b   Bend
| pb  Pre-bend
| br  Bend release
| pbr Pre-bend release
| brb Bend release bend
| ()  strike note while string is bent
| tr  tremelo pick
| <>  natural harmonic
************************************
Tap to rate this tab
# A B C D E F G H I J K L M N O P Q R S T U V W X Y Z