Song name
# A B C D E F G H I J K L M N O P Q R S T U V W X Y Z

Soundgarden - Outshined tab

Tune DADGBE.

  Fill 1| Verse
E|------|-Repeat 13x-----------------------------|-------|
B|------|----------------------------------------|-------|
G|------|----------------------------------------|-------|
D|--sl--|--/pm\---------------5------------------|--ring-|
A|--7\--|--0--0--3h5--3p0--3--3----6--5--3----5--|--0----|
D|--7\--|--0--0--3h5--3p0--3-------6--5--3----5--|--0----|
        |
        |Gtr 2 (4th time, before vocals enter)
       G|-----------7\5/7----
       D|--bends-------------
       A|--3/5\3/5-----------

  Bridge
E|--2-2-2-2-3----2-2-2-3-2-0----|--/5-5-5-5-5-5-5-----|
B|--3-3-3-3-3----3-3-3-3-3-3----|--/5-5-5-5-5-5-5-----|
G|--2-2-2-2-0----2-2-2-2-2-0----|--sl-----------------|
D|--0-0-0-0-0----0-0-0-0-0-0----|----------------Ring-|
A|------------------------------|----------------0----|
D|--Repeat 4x (vary strumming)--|----------------0----|

  Chorus
E|--Repeat 2x---------------------------------------------
B|--------------------------------------------------------
G|--------------------------------------------------------
D|--------pm----------------pm----------------------------
A|--6--5--0--3--5--0--5--3--0--3--0--3--6--6--6--5--3--0--
D|--6--5--0--3--5--0--5--3--0--3--0--3--6--6--6--5--3--0--

-----------------------------------------|--------------------------|
-----------------------------------------|--------------------------|
-----------------------------------------|--pm----pm----pm----pm----|
-----------------------------------------|--5--5--5--5--5--5--5--5--|
--3p0--0--3--3--0--3p0--0--3p0--0--3--3--|--3--3--3--3--3--3--3--3--|
-----------------------------------------|--------------------------|

Then back to the verse, another bridge and chorus.  Then the interlude.

Interlude (light distortion)
E|--2-2-2-3----2-2-3-2-0-----0--0--0---0--0---0--0--0---0--0--0--|
B|--3-3-3-3----3-3-3-3-3--1--1--1--1---1--1---1--1--1---1--1--1--|
G|--2-2-2-0----2-2-2-2-0-----0--0--0---0--0---0--0--0---0--0--0--|
D|--0-0-0-0----0-0-0-0-0-----2--2--2---2--2---2--2--2---2--2--2--|
A|---------------------------------------------------------------|
D|---------------------------------------------------------------|

Interlude goes into the final verse of the song, and that's it!
Tap to rate this tab
# A B C D E F G H I J K L M N O P Q R S T U V W X Y Z