Guitaretab - guitar tabs
Song name
# A B C D E F G H I J K L M N O P Q R S T U V W X Y Z

Soundgarden - Black Hole Sun chords

Highlighted       Show chord diagrams
Black Hole Sun - Soundgarden
Transcribed by Sean James (Fatt Sorum)

This is in Eb standard (Eb Ab Db Gb Bb Eb)

Anyway, here goes. Please comment/rate, especially if I've made a mistake. 

Chords:

 F#m/A  Am    A7     G     F     E    E7     C     D    D5   D5/C#  B5   B5/A
|--2--|--0--|--0--|--3--|--1--|--0--|--0--|--0--|--2--|-----|-----|-----|-----|
|--2--|--1--|--2--|--3--|--1--|--0--|--0--|--1--|--3--|-----|-----|-----|-----|
|--2--|--2--|--0--|--4--|--2--|--1--|--1--|--0--|--2--|--7--|--7--|--4--|--4--|
|--2--|--2--|--2--|--5--|--3--|--2--|--0--|--2--|--0--|--7--|--7--|--4--|--4--|
|--0--|--0--|--0--|--5--|--3--|--2--|--2--|--3--|-----|--5--|--4--|--2--|--0--|
|-----|-----|-----|--3--|--1--|--0--|--0--|-----|-----|-----|-----|-----|-----|


INTRO:
|----------------|-----------|-----------------|------------|
|-------3--------|-------3---|-------3---------|-------2----|
|-----2----2-----|-----2-----|-----0----0------|------------|
|---2--------2---|---2-------|---0--------0----|-----4------|
|-0------------0-|-3---------|-----------------|---4--------|
|----------------|-----------|-3-------------0-|-2--------0-|
 
 
|----------------|-----------|
|----------------|-----------|
|-------3--------|--------4--|
|-----3----3-----|------2----|
|---3--------3---|----5------|
|-1------------1-|--0--------|


VERSE:
      F#m7/A        Am
In my eyes, indisposed
      G               F#m7/A
in disguise as no one knows
          F              E7
hides the face, lies the snake
    F#m7/A A7    Bb
the sun in my disgrace
        F#m7/A       Am     
Boiling heat, summer stench
            G                   F#m7/A
beneath the black the sky looks dead
        F                E7
call my name through the cream
         F#m7/A   A7        Bb
and iŽll hear you, scream again
 
[ Tab from: http://www.guitaretab.com/s/soundgarden/198074.html ]
CHORUS:
           F              E7         
Black hole sun, won't you come
    A    A7       C
and wash away the rain
           F              E7
Black hole sun, won't you come
          D
won't you come 
          E
won't you come
 
 
VERSE:
 
      F#m7/A         Am
Stuttering, cold and damp
          G               F#m7/A
steal the warm wind tired friend
          F               E7
times are gone for honest men
       F#m7/A A7      Bb
and sometimes far too long to snakes
      F#m7/A          Am   
In my shoes a walking sleep
       G               F#m7/A
and my youth i pray to keep
       F         E7
heaven send hell away
        F#m7/A    A7     Bb
no one sings like you anymore
 
 
CHORUS:
           F              E7         
Black hole sun, won't you come
    A    A7       C
and wash away the rain
           F              E7
Black hole sun, won't you come
          D     E
won't you come 
            F              E7         
Black hole sun, won't you come
    A    A7       C
and wash away the rain
           F              E7
Black hole sun, won't you come

          D                 C               E
won't you come ( black hole sun, black hole sun) x4
                                                                                         
                                                         
SOLO:

D5 D5/C# B5 B5/A E x6
 
 
        F#m7/A         Am
Hang my head, drown my fear
         G           F#m7/A
Till you all just disappear



CHORUS:
           F              E7         
Black hole sun, won't you come
    A    A7       C
and wash away the rain
           F              E7
Black hole sun, won't you come
          D     E
won't you come 
            F              E7         
Black hole sun, won't you come
    A    A7       C
and wash away the rain
           F              E7
Black hole sun, won't you come

          D                 C               E
won't you come ( black hole sun, black hole sun)  x8 


OUTRO:

D5 D5/C# B5 B5/A E G
Related for Black Hole Sun chords
Black Hole Sun chords by Soundgarden