Song name
# A B C D E F G H I J K L M N O P Q R S T U V W X Y Z

Soundgarden - Been Away Too Long tab

Been Away Too Long

Soundgarden

Tabbed by: Brownbear93

Tuning:standard

K i corrected all the parts that were lacking so it should be good to go.
Please rate/comment with corrections or your opinion on the new 
Soundgarden tune. Enjoy!!!

Intro:
     *turn up volume on guitar
|----------------------------------------------------|
|----------------------------------------------------|
|----------------------------------------------------|
|--(5)-------------/7-5------------5--5--------------|
|--(5)------5/7\5--/5-3--7--5/7\5--3--3--7--5--xx--x-|
|--(3)------3/5\3--------5--3/5\3--------5--3--xx--x-|
 
    
Main Riff:
 G1
|----------------------------------------------------|
|----------------------------------------------------|x2
|----------------------------------------------------|
|----------------------------------------------------|
|---2--2-5-5-2-2-5/7-2-2----2--2-5-5-2-2-5/7-2-2-----|
|---0--0-3-3-0-0-3/5-0-0----0--0-3-3-0-0-3/5-0-0-----|
|
| G2
|------------------------------0-----------------------------0----|
|------------------------------0-----------------------------0----|
|------------------------------9-----------------------------9----|x2
|-----9--9-9/12-12-9-9-12/14-9-9----9--9-9/12-12-9-9-12/14-9-9----|
|-----7--7-7/10-10-7-7-10/12-7-7----7--7-7/10-10-7-7-10/12-7-7----|
|-----------------------------------------------------------------|


1st Verse:
|--------------------------------------------------------|
|--------------------------------------------------------|
|--6tr---7tr---9tr---7tr--/12tr--------------------------|
|--------------------------------------------------------|
|---------------------------------2--2-5-5-2-2-5/7-2-2---|
|---------------------------------0--0-3-3-0-0-3/5-0-0---|
                                                            x2
|--------------------------------------------------------|
|--------------------------------------------------------|
|--6tr---7tr---9tr--7tr--/13tr---------------------------|
|--------------------------------------------------------|
|---------------------------------2--2-5-5-2-2-5/7-2-2---|
|---------------------------------0--0-3-3-0-0-3/5-0-0---|

|---------------------------------------------------------------------------------------------|
|---------------------------------------------------------------------------------------------|
|---------------------------------------------------------------------------------------------|
|---------------------------------------------------------------------------------------------|
|--9--7-5-2-5-7-8-9---9--7-5-2-5-7-8-9---9--7-5-2-5-7-8-9--9-9-7--7-7-7/12-12-12-12/14-14-14--|
|--7--5-3-0-3-5-6-7---7--5-3-0-3-5-6-7---7--5-3-0-3-5-6-7--7-7-5--5-5-5/10-10-10-10/12-12-12--|


Main Riff:
 G1
|----------------------------------------------------|
|----------------------------------------------------|
|----------------------------------------------------|
|----------------------------------------------------|
|---2--2-5-5-2-2-5/7-2-2----2--2-5-5-2-2-5/7-2-2-----|
|---0--0-3-3-0-0-3/5-0-0----0--0-3-3-0-0-3/5-0-0-----|
|
| G2
|------------------------------0-----------------------------0----|
|------------------------------0-----------------------------0----|
|------------------------------9-----------------------------9----|
|-----9--9-9/12-12-9-9-12/14-9-9----9--9-9/12-12-9-9-12/14-9-9----|
|-----7--7-7/10-10-7-7-10/12-7-7----7--7-7/10-10-7-7-10/12-7-7----|
|-----------------------------------------------------------------|


2nd Verse:
G1 plays the same thing as Verse 1

G2:
|--9tr--10tr--12tr--10tr-/15tr---------------------------0----|
|--------------------------------------------------------0----|
|--------------------------------------------------------9----|
|------------------------------9---9-9/12-12-9-9-12/14-9-9----|
|------------------------------7---7-7/10-10-7-7-10/12-7-7----|
|-------------------------------------------------------------|
                                                                   x2
|--9tr--10tr--12tr--10tr-/16tr---------------------------0----|
|--------------------------------------------------------0----|
|--------------------------------------------------------9----|
|------------------------------9---9-9/12-12-9-9-12/14-9-9----|
|------------------------------7---7-7/10-10-7-7-10/12-7-7----|
|-------------------------------------------------------------|

|---------------------------------------------------------------------------------------------|
|---------------------------------------------------------------------------------------------|
|---------------------------------------------------------------------------------------------|
|---------------------------------------------------------------------------------------------|
|--9--7-5-2-5-7-8-9---9--7-5-2-5-7-8-9---9--7-5-2-5-7-8-9--9-9-7--7-7-7/12-12-12-12/14-14-14--|
|--7--5-3-0-3-5-6-7---7--5-3-0-3-5-6-7---7--5-3-0-3-5-6-7--7-7-5--5-5-5/10-10-10-10/12-12-12--|


Chorus:
|--------------------------------------|
|--------------------------------------|
|--------------------------------------|x4
|---7/9-9-9--7/9-9-9-------------------|
|---5/7-7-7--5/7-7-7--5-2-2-2--5-2-2---|
|---------------------3-0-0-0--3-0-0---|


 G1
|---------------------------------------------------------|
|--/17--15---14-15-14-14h15p14-11-------------------------|
|---------------------------------------------------------|x2
|---------------------------------------------------------|
|----------------------------------2--2-5-5-2-2-5/7-2-2---|
|----------------------------------0--0-3-3-0-0-3/5-0-0---|
|
|G2
|--/12--10---9-10-10-9h10p9-6----------------------------0-|
|--------------------------------------------------------0-|
|--------------------------------------------------------9-|x2
|------------------------------9---9-9/12-12-9-9-12/14-9-9-|
|------------------------------7---7-7/10-10-7-7-10/12-7-7-|
|----------------------------------------------------------|


 G1
|--------------------------------------------------------------------------|
|--------------------------------------------------------------------------|
|--------------------------------------------------------------------------|
|---8--8-8---8--------8--8-8---8--------8--8-----8--------8--8-8---8-------|
|---7--7-7-----7-7\---7--7-7-----7-7\---7--7-7-----7-7\---7--7-7-----7-7\--|
|---0--0-0-0-----0----0--0-0-0-----0----0--0-0-0-----0----0--0-0-0-----0---|
|
|G2
|----------------0-----------------0-----------------0-----------------0---|
|--------------0-0---------------0-0---------------0-0---------------0-0---|
|---9--9-9--9---------9--9-9--9---------9--9-9--9---------9--9-9--9--------|
|---8--8-8--8---------8--8-8--8---------8--8-8--8---------8--8-8--8--------|
|--------------------------------------------------------------------------|
|--------------------------------------------------------------------------|


Delay Part:
|------------------------------------------------------------|
|--9-----10------14------12------9-----10------14------12----|
|--7------8------12------10------7------8------12------10----|
|------------------------------------------------------------|
|------------------------------------------------------------|
|------------------------------------------------------------|


Bridge:
G1
|----------------------------------|
|----------------------------------|
|---------11p9---9p7-----11b-9-----|x6
|--11p9-9------9-----9---------9~--|
|----------------------------------|
|----------------------------------|

|--0--0-----0---0----0--0-----0---0--|
|--0----0-----0------0----0-----0----|
|------------------------------------|x4
|------------------------------------|
|------------------------------------|
|------------------------------------|


G2
|----------------------------------------------------------------------------0-|
|---12/--17--15--14-15-15-14h15p14--11\--------15--15-15--17-15-17-------0-----|
|------------------------------------------------------------------14-16---16--|
|------------------------------------------------------------------------------|
|------------------------------------------------------------------------------|
|------------------------------------------------------------------------------|

|---------------------------------------------------------------------|
|---/15--15-15--17-15-17-------0----0-------/17----------/17----------|
|------------------------14-16---16-------------14-----------14-------|
|---------------------------------------------------------------------|
|---------------------------------------------------------------------|
|---------------------------------------------------------------------|


|------------------------------|
|------------------------------|
|--6tr---7tr---9tr--7tr--/12tr-|
|------------------------------|
|------------------------------|
|------------------------------|


Chorus:
G1
|--------------------------------------|
|--------------------------------------|
|--------------------------------------|x8
|---7/9-9-9--7/9-9-9-------------------|
|---5/7-7-7--5/7-7-7--5-2-2-2--5-2-2---|
|---------------------3-0-0-0--3-0-0---|

G2
|--10h12-12-12--10h12-12-12-----0-0-0----0-0--|
|-----------------------------8--------8------|x4
|---------------------------------------------|
|---------------------------------------------|
|---------------------------------------------|
|---------------------------------------------|

|---------------------------------|
|---------------------------------|
|---------------------------------|
|---------------------------------|
|--5-5-2-7-7-2-9-7-5-2-5-7-8-9----|
|--3-3-0-5-5-0-7-5-3-0-3-5-6-7----|


************************************

| /   slide up
| \   slide down
| h   hammer-on
| p   pull-off
| ~   vibrato
| +   harmonic
| x   Mute note
| b   Bend
| pb  Pre-bend
| br  Bend release
| pbr Pre-bend release
| brb Bend release bend
| tr  tremelo pick

************************************
Tap to rate this tab
# A B C D E F G H I J K L M N O P Q R S T U V W X Y Z