Song name
# A B C D E F G H I J K L M N O P Q R S T U V W X Y Z

Southborder - With A Smile tab

Help us improve GuitareTab! Take a short survey!
medjo antok na ko! bsta e2 read and strum n lng kyo jan! ayt!? RATE NYO SYEMPRE!!!

Intro
|----3--2--0------------3--2--0-----------3--2--0---------6-------|
|----3--------3--1/0----1--------3--1/0---3--------3------6-------|
|----0------------------2-----------------0-----------------------|
|----0------------------2-----------------0-----------------------|
|----2------------------0-----------------2---------------5-------|
|----3----------------------------------------------------6-------|

Verse1
|----3-----3-----3-----0---2------|
|----3-----1-----3-----1---3------|
|----0-----2-----0-----2---2------|
|----0-----2-----0-----2---0------| x2
|----2-----0-----2-----0----------|
|----3----------------------------|
     G   Am/G   Bm/G   Am  D

Verse2
|----1-----6-----1-----6-----1-----6-----1-----2-----|
|----3-----8-----3-----8-----3-----8-----3-----3-----|
|----3-----8-----3-----8-----3-----8-----3-----2-----|
|----3-----8-----3-----8-----3-----8-----3-----0-----|
|----1-----6-----1-----6-----1-----6-----1-----------|
|----------------------------------------------------|


bsta yan lng yng ginamit na chords jan! ayt!? kya ko ginawang tabs imbis na chords n
lng pra mkta yng pgkakaiba nung chords nyan sa chords ng eraserheads! tulog mna ako!
\m/_  *Delos Santos 1-6* i love you mai!!!

-tgpjmd@yahoo.com
Related for With A Smile tab