Guitaretab - guitar tabs
Song name
# A B C D E F G H I J K L M N O P Q R S T U V W X Y Z

Spazz - One Ghetto To The Next tab

e|-----------------------------------------|----------| 
B|-----------------------------------------|----------| 
G|-----------------------------------------|-----just-| 
D|-5-4-8-8-8-7-7-7-8-8-8-7-7-7-6-6-6-6-6-6-|5-4--bass-| 
A|-5-4-6-6-6-5-5-5-8-8-8-7-7-7-4-4-4-6-6-6-|5-4-------| 
D|-5-4-------------8-8-8-7-7-7-------6-6-6-|5-4-------| 

e|-----------------------------| 
B|-----------------------------| 
G|-----------------------------| 
D|-5-4-8-7-8-7-6-6-------------| 
A|-5-4-6-5-8-7-4-6-------------| 
D|-5-4-----8-7---6-------------| 


e|-----------------------------------------|
B|-----------------------------------------| 
G|-----------------------------------------| 
D|-5-4-8-8-8-7-7-7-8-8-8-7-7-7-6-6-6-6-6-6-| 
A|-5-4-6-6-6-5-5-5-8-8-8-7-7-7-4-4-4-6-6-6-| 
D|-5-4-------------8-8-8-7-7-7-------6-6-6-| 

e|-----------------------------| 
B|-----------------------------| 
G|-----------------------------| 
D|-5-4-8-7-8-7-6-6-------------| 
A|-5-4-6-5-8-7-4-6-------------| 
D|-5-4-----8-7---6-------------| 

e|-----------------------------| 
B|-----------------------------| 
G|-----------------------------| 
D|-5-4-8-8-7-7-8-8-7-7-6-6-6-6-|
A|-5-4-6-6-5-5-8-8-7-7-4-4-6-6-| 
D|-5-4---------8-8-7-7-----6-6-| 

e|-----------------------------| 
B|-----------------------------| 
G|-----------------------------| 
D|-5-4-8-7-8-7-6-6-------------| 
A|-5-4-6-5-8-7-4-6-------------| 
D|-5-4-----8-7---6-------------| 

e|----------------------------------------| 
B|----------------------------------------| 
G|----------------------------------------| 
D|-0-(Let ring)---2-1-6------0(ring)--6-6-| 
A|-0--------------2-1-6------0--------6-6-| 
D|-0--------------2-1-6------0--------6-6-| 
[ Tab from: http://www.guitaretab.com/s/spazz/67305.html ]
e|-------------------------------| 
B|-------------------------------| 
G|-------------------------------| 
D|-0-0-0-0-0-0-2-2-2-6-6-6-------| 
A|-0-0-0-0-0-0-2-2-2-6-6-6-------| 
D|-0-0-0-0-0-0-2-2-2-6-6-6-------| 

e|-----------------------------------------|
B|-----------------------------------------| 
G|-----------------------------------------| 
D|-5-4-8-8-8-7-7-7-8-8-8-7-7-7-6-6-6-6-6-6-| 
A|-5-4-6-6-6-5-5-5-8-8-8-7-7-7-4-4-4-6-6-6-| 
D|-5-4-------------8-8-8-7-7-7-------6-6-6-|

e|-------------------------------| 
B|-------------------------------| 
G|-------------------------------| 
D|-0-0-0-0-0-0-2-2-2-6-6-6-------| 
A|-0-0-0-0-0-0-2-2-2-6-6-6-------| 
D|-0-0-0-0-0-0-2-2-2-6-6-6-------| 

e|-----------------------------------------|
B|-----------------------------------------| 
G|-----------------------------------------| 
D|-5-4-8-8-8-7-7-7-8-8-8-7-7-7-6-6-6-6-6-6-| 
A|-5-4-6-6-6-5-5-5-8-8-8-7-7-7-4-4-4-6-6-6-| 
D|-5-4-------------8-8-8-7-7-7-------6-6-6-|

e|-------------------------------| 
B|-------------------------------| 
G|-------------------------------| 
D|-0-0-0-0-0-0-2-2-2-6-6-6-------| 
A|-0-0-0-0-0-0-2-2-2-6-6-6-------| 
D|-0-0-0-0-0-0-2-2-2-6-6-6-------| 

e|-----------------------------------------|
B|-----------------------------------------| 
G|-----------------------------------------| 
D|-5-4-8-8-8-7-7-7-8-8-8-7-7-7-6-6-6-6-6-6-| 
A|-5-4-6-6-6-5-5-5-8-8-8-7-7-7-4-4-4-6-6-6-| 
D|-5-4-------------8-8-8-7-7-7-------6-6-6-| 

e|-----------------------------| 
B|-----------------------------| 
G|-----------------------------| 
D|-5-4-8-7-8-7-6-6-------------| 
A|-5-4-6-5-8-7-4-6-------------| 
D|-5-4-----8-7---6-------------| 


e|----------------| 
B|----------------| 
G|----------------| 
D|-0--------------| 
A|-0--------------| 
D|-0--------------| 

Have fun. I might be putting more spazz songs on here
if i can work them out, cos there's next to none on
the internet. Sam.
Related for One Ghetto To The Next tab
Advertisement will be closed in 10 seconds