Song name
# A B C D E F G H I J K L M N O P Q R S T U V W X Y Z

Spider - Telinga Ke Tulang tab

 
Tabbed by: GmasterMB

play these notes with whammy bar effect
stress the whammy pitch here================================
                                               ||          ||
                                               \/ \/\/ \/\/\/
--11---10-9-8--8-9-10-9-8-9-|---15---13-11-9-8--8-9-10-9-8-9--|
----------------------------|---------------------------------|
----------------------------|---------------------------------|
----------------------------|---------------------------------|
----------------------------|---------------------------------|
----------------------------|---------------------------------|

 stress also on the notes
    |||||||||      <--whammy bar---------------------|
--3-1-3-4-3-1-3--|-----------------------------------|
-----------------|-//////////////////// 13~~~~~------|
-----------------|-----------------------------------|
-----------------|-----------------------------------|
-----------------|-----------------------------------|
-----------------|-----------------------------------|
pitching up with whammy bar..

------------------------------------------------------------|
---------------------------------8-6-8-9-8-6-8~~~~----------|
------------------------------------------------------------|
------------------------------------------------------------|
------------------------------------------------------------|
------------------------------------------------------------|
makin hebat makin terpanggil.....
--------------------------------------------------------------------|
---------------------------------8-6-8-6----------------------------|
-----------------------------------------8-7-8-5~~~-----------------|
--------------------------------------------------------------------|
--------------------------------------------------------------------|
--------------------------------------------------------------------|
telinga sampai ke tulang.........              ||
                                               ||
at the second repeat, this part ================  replaced with 8
Tap to rate this tab
# A B C D E F G H I J K L M N O P Q R S T U V W X Y Z