Song name
# A B C D E F G H I J K L M N O P Q R S T U V W X Y Z

Spill Canvas - Pretty Pretty tab

-------------------------------------------------------------------------------
			     Pretty, Pretty- Spill canvas
-------------------------------------------------------------------------------
Tabbed by: stoxy101
Email:danny_stox@hotmail.com

Tuning:
         intro/verse1+2

e|------x-x-x-x-x-------x-x-x-x-x------x-x-x-x-x---------|
B|------x-x-x-x-x-------x-x-x-x-x------x-x-x-x-x---------|
G|------4-4-4-4-4-------8-8-8-8-8------6-6-6-6-6-----x5--|
D|------4-4-4-4-4--x2---8-8-8-8-8------6-6-6-6-6---------|
A|------2-2-2-2-2-------6-6-6-6-6------4-4-4-4-4---------|
E|------x-x-x-x-x-------x-x-x-x-x------x-x-x-x-x---------|
        chourus/3rd verse
e|------x--------------x---------------x----------------|
B|------x--------------x---------------x----------------|
G|------11-------------6---------------4----------------|
D|------11----strum x6-6---strum x6----4-----strum x11--|
A|------9--------------4---------------2----------------|
E|------x--------------x---------------x----------------|

  this is my version of the song and it sounds pretty good email me on waht u think thnx xx
Tap to rate this tab
# A B C D E F G H I J K L M N O P Q R S T U V W X Y Z