Guitaretab - guitar tabs
Song name
# A B C D E F G H I J K L M N O P Q R S T U V W X Y Z

Spill Canvas - One Thing Is For Sure tab

intro
half step down
no really i'm fine
one thing is for sure


|-----------[]---------3-|
|-8-3-5-1-1-[]-8-3-5-1-3-|
|-9-4-5-2-0-[]-9-4-5-2-0-|
|-9-4-5-2-2-[]-9-4-5-2-2-|
|-7-2h3-0-3-[]-7-2h3-0-3-|
|-----------[]-----------|

[ Tab from: http://www.guitaretab.com/s/spill-canvas/98634.html ]
|-----------------------7-10--------------------------|
|----8-7-3/5---3-1-5/8-7----10-12-10-8-7-8-5--3-7-3-5-|
|---9---------4---------------------------------------|
|--9---------4----------------------------------------|
|-7---------2-----------------------------------------|
|-----------------------------------------------------|
Related for One Thing Is For Sure tab
Advertisement will be closed in 10 seconds