Song name
# A B C D E F G H I J K L M N O P Q R S T U V W X Y Z

Spineshank - Forgotten tab

SPINESHANK ARE NOW OFFICIALLY BACK TOGETHER!!! Jonny Santos returned and a new album is 
in 2009
This is a fairly easy song once you get the hang of it

Song: Forgotten
Album: Self Destructive Pattern
Tuning: Either C-G-C-F-A-D or Asharp-F-Asharp-Dsharp-G-C

Verse:
---------------------------------------------------------------------------|
---------------------------------------------------------------------------|
---------------------------------------------------------------------------|
-7-7-7-x-x-x-x-------------------------------------------------------------|
-5-5-5-x-x-x-x-5-5-5-8-8-8-x-x-x-x-7-7-7-----------------------------------|
---------------5-5-5-8-8-8-x-x-x-x-7-7-7-----------------------------------|

Chorus:
----------------------------------------------------------------------|
----------------------------------------------------------------------|
---------10101010--------10101010---------10101010--------12-12-12-12-|
----------------------------------------------------------------------|
-0-0-0-0-8-8-8-8--5-5----8-8-8-8--8-8-8-8-8-8-8-8-7-7-7-7-10-10-10-10-|
-0-0-0-0----------5-5-------------8-8-8-8---------7-7-7-7-------------|

Bridge:
---------------------------------------------------------------------------|
---------------------------------------------------------------------------|
---------------------------------------------------------------------------|
---------------------------------------------------------------------------|
---------8h9p8---------10h11p10---------12h13p12---------10h11p12----------|
-0-0-0-0-------5-5-5-5----------8-8-8-8----------7-7-7-7-------------------|

There is a little bit after the bridge and I can't work out the guitar part because Mike
is using effects so you can either bust out a quick solo or just have no guitars for 
part

Song Structure:
Verse
Chorus
Verse
Chorus
Bridge
Verse
Chorus
Bridge
Tap to rate this tab
# A B C D E F G H I J K L M N O P Q R S T U V W X Y Z