Song name
# A B C D E F G H I J K L M N O P Q R S T U V W X Y Z

Spineshank - New Disease tab

Hey dudes 'n Dudettes this songs mazin, but im not to good at tabs to much, specially
the tuning bit. so ill just like, put my the tabs up n stuff n ill let you better than
me people work them out, however i think they may go
e b g d a d im not to sure however ill stick the tabs down now. pweese rate this you
know you wanna :)
[dont laugh at the crappyness of these its my first tab!!!]
Spineshank
New disease

Intro
-22222-22222-22222-22222-------|
1-----7-----5-----3------------|
3-----9-----7-----5------------|
3-----9-----7-----5------------|
-------------------------------|
-------------------------------|
-22222-22222-22222-22222-22222-|
1-----7-----5-----3-----1------|
3-----9-----7-----5-----3------|
3-----9-----7-----5-----3------|
-------------------------------|
-------------------------------|
Fill / Verse
------------------------------|
------------------------------|
------------------------------|
---3-33-----------------------|
---3-33-----------------------|
---3-33-----------------------|x8

------------------------------|
------------------------------|
------------------------------|
---3-3---5--6--6--------------|
---3-3---5--6--6--------------|
---3-3---5--6--6--------------|x8

Chorus

--22222-22222-22222-22222------|
1-----7-----5-----3------------|
3-----9-----7-----5------------|
3-----9-----7-----5------------|
-------------------------------|
-------------------------------|
-22222-22222-22222-22222-22222-|
1-----7-----5-----3-----1------|
3-----9-----7-----5-----3------|
3-----9-----7-----5-----3------|
-------------------------------|
-------------------------------|

Fill / Verse
------------------------------|
------------------------------|
------------------------------|
---3-33-----------------------|
---3-33-----------------------|
---3-33-----------------------|x6

------------------------------|
------------------------------|
------------------------------|
---3-3---5--6--6--------------|
---3-3---5--6--6--------------|
---3-3---5--6--6--------------|x8

Chorus x........
-22222-22222-22222-22222-------|
1-----7-----5-----3------------|
3-----9-----7-----5------------|
3-----9-----7-----5------------|
-------------------------------|
-------------------------------|
-22222-22222-22222-22222-22222-|
1-----7-----5-----3-----1------|
3-----9-----7-----5-----3------|
3-----9-----7-----5-----3------|
-------------------------------|
-------------------------------|
--22222-22222-22222-22222------|
1-----7-----5-----3------------|
3-----9-----7-----5------------|
3-----9-----7-----5------------|
-------------------------------|
-------------------------------|
-22222-22222-22222-22222-22222-|
1-----7-----5-----3-----1------|
3-----9-----7-----5-----3------|
3-----9-----7-----5-----3------|
-------------------------------|
-------------------------------|

Bridge x .......
------------------------------|
------------------------------|
------------------------------|
---3-3---5--6--6--------------|
---3-3---5--6--6--------------|
---3-3---5--6--6--------------|

------------------------------|
------------------------------|
------------------------------|
---3----4-----3---1--3--3-----|
---3----4-----3---1--3--3-----|
---3----4-----3---1--3--3-----|

------------------------------|
------------------------------|
------------------------------|
---3-3---5--6--6--------------|
---3-3---5--6--6--------------|
---3-3---5--6--6--------------|

Chorus
-22222-22222-22222-22222-------|
1-----7-----5-----3------------|
3-----9-----7-----5------------|
3-----9-----7-----5------------|
-------------------------------|
-------------------------------|
-22222-22222-22222-22222-22222-|
1-----7-----5-----3-----1------|
3-----9-----7-----5-----3------|
3-----9-----7-----5-----3------|
-------------------------------|
-------------------------------|
--22222-22222-22222-22222------|
1-----7-----5-----3------------|
3-----9-----7-----5------------|
3-----9-----7-----5------------|
-------------------------------|
-------------------------------|
-22222-22222-22222-22222-22222-|
1-----7-----5-----3-----1------|
3-----9-----7-----5-----3------|
3-----9-----7-----5-----3------|
-------------------------------|
-------------------------------|

Outro

------------------------------------|
------------------------------------|
------------------------------------|
---3----4-----3---1--3--3-----------|
---3----4-----3---1--3--3-----------|
---3----4-----3---1--3--3----- <----| Seems to be played slowly

Hope this is right, if its not or wotever, wanna comment e-mail me at wackowalker@hotmail.com :)
Tap to rate this tab
# A B C D E F G H I J K L M N O P Q R S T U V W X Y Z