Song name
# A B C D E F G H I J K L M N O P Q R S T U V W X Y Z

Sponge - Rainin tab

All B#s are suppossed to be Bs



   +   +   +   +     +   +   +   +     
e: -----------------|-----------------|
B: -----------------|-----------------|
G: ----3------------|----3------------|   Fig.1
D: -4-----4--3------|-4-----4--3------|
A: -4-----------4---|-2-----------6---|
E: -2---------------|-2---------------|
    F#               B

   +   +   +   +     +   +   +   +  
e: -----------------|-----------------|
B: -----------------|-----------------|
G: -----------------|6-6-6-6-4--------|   Fig.2
D: 4---4---4---x----|6-6-6-6-4---2----|
A: 4---4---4---x----|4-4-4-4-2---0----|
E: 2---2---2---x----|-----------------|



Intro/Verse 1 - Fig.1 - 8x

Prechorus     - C# B  - 4x

Chorus        - F# B  - 2x

Verse 2       - F# B  - 4x

Prechorus     - C# B  - 4x

Chorus        - F# B  - 4x

Interlude     - Fig.2 - 8x  (End with B#)

Verse 3       - Fig.1 - 4x

Chorus        - F# B  - 6x

Outro         - F# A# G# G - 4x (End with F#)
Tap to rate this tab
 
# A B C D E F G H I J K L M N O P Q R S T U V W X Y Z