Guitaretab - guitar tabs
Song name
# A B C D E F G H I J K L M N O P Q R S T U V W X Y Z
Home / S / Sr-71 / Goodbye tab

Sr-71 - Goodbye tab

Tabbed By: Dom Charters

This band totally ROCK!!! if ur gonna try n learn this, good on ya, u must hav a good
taste in music! Ive just dun the main/important bits, u shud b able 2 get the rest by
listnin, but i cudnt b bovad 2 rite it all out.

Intro/Chorus:(Distorted)
e|------------------|----------------------|-----------------------|
B|------------------|----------------------|-----------------------|
G|------------------|----------------------|-----------------------|
D|-----10---11---10-|-------10----11----10-|--------10----11----10-|
A|-8-8----8----8----|----------------------|--11-11----11----11----|
D|------------------|-11-11----11----11----|-----------------------|

e|----------------------|
B|----------------------|
G|----------------------|
D|----------------------|
A|-------16----15----11-|
D|-13-13----13----13----|
[ Tab from: http://www.guitaretab.com/s/sr-71/121572.html ]
e|------------------|----------------------|-----------------------|
B|------------------|----------------------|-----------------------|
G|------------------|----------------------|-----------------------|
D|-----10---11---10-|-------10----11----10-|--------10----11----10-|
A|-8-8----8----8----|----------------------|--11-11----11----11----|
D|------------------|-11-11----11----11----|-----------------------|

e|-----------|
B|-----------|
G|-----------|
D|-1-1---1-1-|
A|-1-1---1-1-|
D|-1-1---1-1-|

Verse:
e|--------------------------|x8
B|--------------------------|
G|--------------------------|
D|11-11-11-11---10-10-10-10-|
A|--------------------------|
D|--------------------------|

Chorus:

Same as Intro, but then...
                                                  (Palm Muted)
e|------------------------------------------------|-----------|
B|------------------------------------------------|-----------|
G|------------------------------------------------|-----------|
D|-3-3-3-3-3---3-3-3-3-3---3-3-3-3-3---3-3-3-3-3--|-1-1-1-1-1-|
A|-3-3-3-3-3---3-3-3-3-3---3-3-3-3-3---3-3-3-3-3--|-1-1-1-1-1-|
D|-3-3-3-3-3---3-3-3-3-3---3-3-3-3-3---3-3-3-3-3--|-1-1-1-1-1-|

U shud b Able 2 figure out the order, its not that hard!










Related for Goodbye tab
Advertisement will be closed in 10 seconds