Song name
# A B C D E F G H I J K L M N O P Q R S T U V W X Y Z

Stabilo - One More Pill tab

-----------------------------------------------------------------
One More Pill - Stabilo
-----------------------------------------------------------------
Tabbed by: Matt Hanrahan
Email: mjhanny21@yahoo.com

Tuning: Standard


Verse:
   A         A         D         D
e|-00x00x00--00x00x00--55x55x55--55x55x55---------------------------|
B|-00x00x00--00x00x00--77x77x77--77x77x77---------------------------|
G|-66x66x66--66x66x66--77x77x77--77x77x77-----Repeat-X2-------------|
D|-77x77x77--77x77x77--77x77x77--77x77x77---------------------------|
A|-77x77x77--77x77x77--55x55x55--55x55x55---------------------------|
E|-55x55x55--55x55x55--55x55x55--55x55x55---------------------------|
   DU DU DU
  Said you wanna be, said you wanna be a wife...

   A         A/G#      F#m       D
e|-00x00x00--00x00x00--22x22x22--55x55x55---------------------------|
B|-00x00x00--00x00x00--22x22x22--77x77x77---------------------------|
G|-66x66x66--66x66x66--22x22x22--77x77x77-----Repeat X2-------------|
D|-77x77x77--77x77x77--44x44x44--77x77x77---------------------------|
A|-77x77x77--77x77x77--44x44x44--55x55x55---------------------------|
E|-55x55x55--44x44x44--22x22x22--55x55x55---------------------------|

   I said goodbye too many times, before at your door...

Pre-Chorus:
   Bm                          A                          E
e|-2---------------------------0--------------------------0---------|
B|-3---------------------------2--------------------------0---------|
G|-4---------------------------2--------------------------1-----X2--|
D|-4---------------------------2--------------------------2---------|
A|-2---------------------------0--------------------------2---------|
E|-2---------------------------0--------------------------0---------|

   I felt your skin, I tried to melt in to your skin and I did...

Chorus:
   A         D         Bm        E
e|-00x00x00--00x00x00--22x22x22--00x00x00---------------------------|
B|-00x00x00--00x00x00--33x33x33--00x00x00---------------------------|
G|-66x66x66--77x77x77--44x44x44--11x11x11-----Repeat-X2-------------|
D|-77x77x77--77x77x77--44x44x44--22x22x22---------------------------|
A|-77x77x77--55x55x55--22x22x22--22x22x22---------------------------|
E|-55x55x55--55x55x55--22x22x22--00x00x00---------------------------|

   One for the money, and two for the show...


   Listen to the song for the correct timing, and order of the song. These chord
repeat throughout the rest of the song and it ends with an A chord. This is a great song 
a
band, and i hope you enjoy it. And by the way, this is my first tab, so give me some 
so I can improve for next time.

| /  slide up
| \  slide down
| h  hammer-on
| p  pull-off
| ~  vibrato
| +  harmonic
| x  Mute note

For info on Stabilo visit: http://www.stabilomusic.com/
Tap to rate this tab
# A B C D E F G H I J K L M N O P Q R S T U V W X Y Z