Song name
# A B C D E F G H I J K L M N O P Q R S T U V W X Y Z

Stabilo - Any Other Girl tab

Help us improve GuitareTab! Take a short survey!
Here they are: the tabs for any other girl, finally.

Tabbed for BP, 
Tabbed by, Jordan s.


e|-------------------------------------------------------|
B|-------4/3----10--------11--------------------8--------|
G|-------3------11--------12---------10---------8--------|
D|------------------------12---------10---------8--------|
A|---3-------9------9-10-----------------8-5-6-----------|
E|-----------------------------8--10---------------------|

e|-------------------------------------------------------|
B|---------10------------------11------------------------|
G|---------11---------------12-12------------10----------|
D|---------10------------12---------------10----10-------|
A|--12--12-----12----10--------------8-------------------|
E|-------------------------------------------------------|
Intro starts with one extra
e|-----------|
B|-------4/3-|
G|-------3---|
D|-----------|
A|---3-------|
E|-----------|


* intro has a variation, no different chords i dont think, ill let you figure it out.


Quiet guitar.

e|-------------------------------------------|
B|-------------------------------------------|
G|-------------------------------------------|
D|-------------------------------------------|
A|--6----------------------------------------|
E|-------------------------------------------|

e|-------------------------------------------|
B|-------------------------------------------|
G|-------------------------------------------|
D|---5-7--8--8-------------------------------|
A|-------------------------------------------|
E|-------------------------------------------|

e|-------------------------------------------|
B|-------------------------------------------|
G|-------------------------------------------|
D|--------7--8-------------------------------|
A|-----8-------------------------------------|
E|--6----------------------------------------|

e|------------------------------------------|
B|------------------------------------------|
G|------------------------------------------|
D|--------10--8-----------------------------|
A|--5--8------------------------------------|
E|------------------------------------------|


e|------------------------------------------|
B|------------------------------------------|
G|------------------------------------------|
D|-----5--7--8------5--7--8-----------------|
A|--6------------8--------------------------|
E|------------------------------------------|
repeat, 
You're almost perfect but still
I'm not , I'm not, I'm nott....
e|------------------------------------------|
B|------------------------------------------|
G|------------------------------------------|
D|------------------------------------------|
A|----6-----8-------------------------------|
E|------------------------------------------|


guitar interlude thing.
e|------------------------------------------|
B|------------------------------------------|
G|------------------------------------------|
D|----0-7-8-7-7-8-8-------------------------|
A|-10---------------------------------------|
E|------------------------------------------|


e|------------------------------------------|
B|------------------------------------------|
G|------------------------------------------|
D|----0-7-8-7-7-8-8-------------------------|
A|------------------------------------------|
E|-6----------------------------------------|

e|------------------------------------------|
B|------------------------------------------|
G|------------------------------------------|
D|----0-7-8-7-10-8--------------------------|
A|-8----------------------------------------|
E|------------------------------------------|

e|------------------------------------------|
B|------------------------------------------|
G|------------------------------------------|
D|---0-7-8-7-7-----0-7-8-7-7----------------|
A|-6------------8---------------------------|
E|------------------------------------------|

Verse(yes the part with the insane piano)
All 4 bars
e|----3-----3-|-----3------3-|------3-------3-|----3----3-|
B|----3-----3-|-----3------3-|------3-------3-|----3----3-|
G|--0----0----|--2------2----|-5-------5------|-----------|
D|------------|--------------|----------------|--1----3---|
A|------------|--------------|----------------|-----------|
E|------------|--------------|----------------|-----------|

Back to the acoustic+piano interlude for a moment. Play once.
e|------------------------------------------|
B|------------------------------------------|
G|------------------------------------------|
D|----0-7-8-7-7-8-8-------------------------|
A|-10---------------------------------------|
E|------------------------------------------|


e|------------------------------------------|
B|------------------------------------------|
G|------------------------------------------|
D|----0-7-8-7-7-8-8-------------------------|
A|------------------------------------------|
E|-6----------------------------------------|

e|------------------------------------------|
B|------------------------------------------|
G|------------------------------------------|
D|----0-7-8-7-10-8--------------------------|
A|-8----------------------------------------|
E|------------------------------------------|

e|------------------------------------------|
B|------------------------------------------|
G|------------------------------------------|
D|---0-7-8-7-7-----0-7-8-7-7----------------|
A|-6------------8---------------------------|
E|------------------------------------------|

Back to the verse.
All 4 bars
e|----3-----3-|-----3------3-|------3-------3-|----3----3-|
B|----3-----3-|-----3------3-|------3-------3-|----3----3-|
G|--0----0----|--2------2----|-5-------5------|-----------|
D|------------|--------------|----------------|--1----3---|
A|------------|--------------|----------------|-----------|
E|------------|--------------|----------------|-----------|

Chorus
All 4 bars
e|---------3--|-----3------3-|------3-------3-|----3----3-|
B|---------3--|-----3------3-|------3-------3-|----3----3-|
G|-0-mute-----|--3--3---3--3-|-2-------2------|--2----3---|
D|------------|--------------|----------------|-----------|
A|------------|--------------|----------------|-----------|
E|------------|--------------|----------------|-----------|

back to the interlude once again. im sure i dont need to show the tabs for the third time.

SOLOOOOOO type thing.

Heres the toughest part, and ironically the only part im 100% sure i tabbed right.
e|----------------------------|
B|----------------------------|
G|---3---0-3---3-0------------|
D|-------------------5--3-3---|
A|----------------------------|
E|-3---3-----3-----3----------|

e|----------------------------|
B|----------------------------|
G|---3---2-3---3--------------|
D|---------------3---5--3-3---|
A|-1---1-----1-----1----------|
E|----------------------------|

e|----------------------------|
B|----------------------------|
G|-------5--------------------|
D|---3---------3-----5--3-3---|
A|-5---5---5-5---5-5----------|
E|----------------------------|

e|----------------------------|
B|----------------------------|
G|-------------------10/>-----|
D|---5---5-3-3---7------------|
A|-6---6-------8---8----------|
E|----------------------------|
repeat as needed.

Back to the chorus.Again i dont think i need to waste your screen space.

Then it changes to 6/8 time if you didnt notice (not tempo change but time signature)
don't worry, its the same chords as the chorus.

K thats all. 

Related for Any Other Girl tab