Song name
# A B C D E F G H I J K L M N O P Q R S T U V W X Y Z

Staind - Raw tab

This song is kinda hard so it takes some practice.

Pm=palm mute

Main riff
-------------------------0h1------|
------------------------0h1-------|
----------------------------------|
-----0-0-----0-----0-0-0----------|Repeat 8 times
-0h1-0-0-0h1-0-0h1-0-0-0----------|
-0h1-----0h1---0h1----------------|
    Pm..    Pm.   Pm....

Verse

----------------------------------|
----------------------------------|
----------------------------------|
--7-7-7-7-------------------------|
---5---5--------------------------|
-7---7----------------------------|

----------------------------------|
----------------------------------|
----------------------------------|
--5-5-5-5-------------------------|
---6---6--------------------------|
-5---5----------------------------|

Bridge

----------------------------------|
----------------------------------|
----------------------------------|
----------------------------------|Repeat 3 times
-0-0-0-0-1-1-1-1------------------|
----------------------------------|
Pm...............

then..

----------------------------------|
----------------------------------|
----------------------------------|
----------------------------------|
-5-4-5-4-5------------------------|
----------------------------------|
Pm........

then when it starts to get heavy..

----------------------------------|
----------------------------------|
----------------------------------|
----------------------------------|
-7-7-8p7-8~-7-7-8p7-8~-7-7-8p7-8~-|
-7-7-8p7-8~-7-7-8p7-8~-7-7-8p7-8~-|

----------------------------------|
----------------------------------|
----------------------------------|
----------------------------------|Repeat as neccesary
----------------------------------|
-12p11-12p11-12~------------------|

Chorus..Sorry I almost forgot ;)

----------------------------------|
----------------------------------|
----------------------------------|
----------------------------------|Repeat on all of the beats
-3~-5~----------------------------|
-3~-5~----------------------------|
Tap to rate this tab
# A B C D E F G H I J K L M N O P Q R S T U V W X Y Z