Song name
# A B C D E F G H I J K L M N O P Q R S T U V W X Y Z

Staind - Hidden Track tab

 
#----------------------------------PLEASE NOTE----------------------------------#
# This file is the author's own work and represents their interpretation of the #
# song. You may only use this file for private study, scholarship, or research. #
#-------------------------------------------------------------------------------#
 
tabed by wayne m
Staind's Secret Track off the album "Dysfunction"

Standard tuning: low to high EADGBE
  
This is basically how it goes:

Intro

E---------------------
B---------------------
G------------0--------  Play 4 times
D---------4-----4-----
A------2-----------2--
E---0-----------------
    
   
E---------------------
B---------------------
G------------0--------  Play 4 times
D---------4-----4-----
A------2-----------2--
E---3-----------------


The verse is the same as the intro with the same picking pattern.  

Chorus

E---------------------
B------------0--------
G---------2-----2-----  Play 2 times
D------2-----------2--
A---0-----------------
E---------------------


E---------------------
B------------0--------
G---------0-----0-----  Play 2 times
D------2-----------2--
A---3-----------------
E---------------------

The rest just repeats: verse, chorus, verse, chorus, etc.
That's about the jist of it.
Tap to rate this tab
 
# A B C D E F G H I J K L M N O P Q R S T U V W X Y Z