Song name
# A B C D E F G H I J K L M N O P Q R S T U V W X Y Z

Staind - Everything Changes Acoustic Live tab

-------------------------------------------------------------------------------
			     Everything Changes (Acoustic Live)
                                        Staind
-------------------------------------------------------------------------------
Tabbed by:Omar aka Staind_915
Email:cowboyz915@yahoo.com

   I just heard the acoustic version of the song and I thought it was a 
really pretty version of the song. And that's the first time I ever used
the word pretty like that. But, the reason I tabbed it is because there's
a difference between the actual song and the acoustic live one.

   This is from their newly released The Singles: 1996-2006 album. GO BUY IT!



Tuning: Acoustic 1 & 2: Both are !/2 step down

 

 Intro & Verse 1


 Intro:  Acoustic 1/Aaron Lewis
 Strum the chords:  E   Asus2   C#maj   Asus2
     (Just listen for the pattern that Aaron plays.)

 Verse1: Acoustic 2/Mike Mushok
  

e|--------4----5h7-----------------------------7-------------------7---------|
B|-----5--------------5--------------5-----5------------5------5-------5-----|
G|--4---------------------4-------4-----4-----------4------4--------------4--|
D|-----------------------------6---------------------------------------------|
A|---------------------------------------------------------------------------|
E|---------------------------------------------------------------------------|

e|---4h5---------------------------------5---------------------5-------------|
B|----------5----------------5-------5-------5-------5-------------5---------|
G|--------------4--------4-------4---------------4--------4-----------4------|
D|-------------------7---------------------------------------------------7---|
A|---------------------------------------------------------------------------|
E|---------------------------------------------------------------------------|

e|---2h4---------------------------4------------------4----------------------|
B|-----------5------------5-----5------5------5------------5-----------------|
G|--------------4------4-----4------------4-------4------------4-------------|
D|------------------6----------------------------------------------6---------|
A|---------------------------------------------------------------------------|
E|---------------------------------------------------------------------------|
                                              
e|---4h5p4-----4h5p4-------4h5p4--------4h5-------------7--------------------|
B|----------5-----------5-----------5----------------5-----------------------|
G|-----------------------------------------------4---------------------------|
D|---------------------------------------------------------------------------|
A|---------------------------------------------------------------------------|
E|---------------------------------------------------------------------------|

  Chorus:

  Acoustic 1/Aaron Lewis
   Play the four chords in order same as the *Intro*


  Acoustic 2/Mike Mushok
   You can either play the chords rythmicaly with acoustic 1 or do this:

e|------------------0---------------------------0----------------------------|
B|-----------0----------0----------------0------------0----------------------|
G|----1--1-------1---------1----1----1-------1------------1------------------|
D|----2-------------------------2-----------------------------2--------------|
A|----2-------------------------2--------------------------------2-----------|
E|---------------------------------------------------------------------------|

e|------------0-----------------0------------------0-------------------------|
B|--------2------2----------2-------2----------2------2----------------------|
G|----2---2---------2---2---2----------2---2---2--------2--------------------|
D|----0-----------------0------------------0---------------0-----------------|
A|---------------------------------------------------------------------------|
E|---------------------------------------------------------------------------|
 
  *This is a barre chord use your middle finger to do the hammer ons*
     (Use your first finger to barre the 4th fret of the A string and use
         the Am fingerings)  0002210  "The 1 is your middle finger"

e|---------------------------------------------------------------------------|
B|--4h5------5--------4h5p4--------5---------4h5p4--------5----------5-------|
G|----6---6--------6----6------6----------6----6------6-----------6----------|
D|----6---------6-------6--------------6-------6--------------6--------------|
A|----4-----------------4----------------------4-----------------------------|
E|---------------------------------------------------------------------------|

  *Then go back to Asus2*

e|------------0-----------------0------------------0-------------------------|
B|--------2------2----------2-------2----------2------2----------------------|
G|----2---2---------2---2---2----------2---2---2--------2--------------------|
D|----0-----------------0------------------0---------------0-----------------|
A|---------------------------------------------------------------------------|
E|---------------------------------------------------------------------------|


  Verse 2:

   Acoustic 1/Aaron Lewis: Play the same chords again.
     (If you're wondering he does play those chords through the whole song)

   Acoustic 2/Mike Mushok: Same as Verse 1

e|--------4----5h7-----------------------------7-------------------7---------|
B|-----5--------------5--------------5-----5------------5------5-------5-----|
G|--4---------------------4-------4-----4-----------4------4--------------4--|
D|-----------------------------6---------------------------------------------|
A|---------------------------------------------------------------------------|
E|---------------------------------------------------------------------------|

e|---4h5---------------------------------5---------------------5-------------|
B|----------5----------------5-------5-------5-------5-------------5---------|
G|--------------4--------4-------4---------------4--------4-----------4------|
D|-------------------7---------------------------------------------------7---|
A|---------------------------------------------------------------------------|
E|---------------------------------------------------------------------------|

e|---2h4---------------------------4------------------4----------------------|
B|-----------5------------5-----5------5------5------------5-----------------|
G|--------------4------4-----4------------4-------4------------4-------------|
D|------------------6----------------------------------------------6---------|
A|---------------------------------------------------------------------------|
E|---------------------------------------------------------------------------|
                                              
e|---4h5p4-----4h5p4-------4h5p4--------4h5-------------7--------------------|
B|----------5-----------5-----------5----------------5-----------------------|
G|-----------------------------------------------4---------------------------|
D|---------------------------------------------------------------------------|
A|---------------------------------------------------------------------------|
E|---------------------------------------------------------------------------|


  Solo: Here, I am not sure of everything in the solo but someone can
        always correct it.

     *=Long bends                                          
e|---------------------------------------------------------------------------|
B|----7b*--7--7b----5---4-4-4h5--------------12b*----9---10----12\7----------|
G|--------------------------------6------------------------------------------|
D|---------------------------------------------------------------------------|
A|---------------------------------------------------------------------------|
E|---------------------------------------------------------------------------|
 
  *On the slide pick 5 on your way to the second fret*
e|---------------------------------------------12b---11b--10---12b---11b--10-|
B|---7777/9------7\5\2/7----9---10--10--10--12-------------------------------|
G|---------------------------------------------------------------------------|
D|---------------------------------------------------------------------------|
A|---------------------------------------------------------------------------|
E|---------------------------------------------------------------------------|

 *long vibrato*                                      *wait 1 sec. on slides*
e|---14~~~---------12---10b----8---------------------------------------------|
B|---------------------------------13b--11--10---12----11--------------------|
G|---------------------------------------------------------11----9*\8*--\6---|
D|---------------------------------------------------------------------------|
A|---------------------------------------------------------------------------|
E|---------------------------------------------------------------------------|

 Interlude:
 Then for the interlude play the verse with the 4,5,4 parts

e|-------------5h7-----------------------------7-------------------7---------|
B|--------------------5--------------5-----5------------5------5-------5-----|
G|------------------------4-------4-----4-----------4------4--------------4--|
D|-----------------------------6---------------------------------------------|
A|---------------------------------------------------------------------------|
E|---------------------------------------------------------------------------|

e|---4h5---------------------------------5---------------------5-------------|
B|----------5----------------5-------5-------5-------5-------------5---------|
G|--------------4--------4-------4---------------4--------4-----------4------|
D|-------------------7---------------------------------------------------7---|
A|---------------------------------------------------------------------------|
E|---------------------------------------------------------------------------|

e|---2h4---------------------------4------------------4----------------------|
B|-----------5------------5-----5------5------5------------5-----------------|
G|--------------4------4-----4------------4-------4------------4-------------|
D|------------------6----------------------------------------------6---------|
A|---------------------------------------------------------------------------|
E|---------------------------------------------------------------------------|
                                              
e|---4h5p4-----4h5p4-------4h5p4--------4h5----------------------------------|
B|----------5-----------5-----------5----------------------------------------|
G|---------------------------------------------------------------------------|
D|---------------------------------------------------------------------------|
A|---------------------------------------------------------------------------|
E|---------------------------------------------------------------------------|



Chorus: ****Extended: the last two similies are repeated****

  Acoustic 1/Aaron Lewis
   Play the four chords in order same as the *Intro*


  Acoustic 2/Mike Mushok
   You can either play the chords rythmicaly with acoustic 1 or do this:

e|-------------------------------------------------------0-------------------|
B|-----------0------0-----------0------0-------------0-------0---------------|
G|--------1-----1-----------1-------1-----------1----------------1-----------|
D|----2---2-------------2---2---------------2---2-------------------2--------|
A|----2-----------------2-------------------2--------------------------2-----|
E|---------------------------------------------------------------------------|

e|------------0-----------------0------------------0-------------------------|
B|--------2------2----------2-------2----------2------2----------------------|
G|----2---2---------2---2---2----------2---2---2--------2--------------------|
D|----0-----------------0------------------0---------------0-----------------|
A|---------------------------------------------------------------------------|
E|---------------------------------------------------------------------------|
 
e|---------------------------------------------------------------------------|
B|--4h5------5--------4h5p4--------5---------4h5p4--------5----------5-------|
G|----6---6--------6----6------6----------6----6------6-----------6----------|
D|----6---------6-------6--------------6-------6--------------6--------------|
A|----4-----------------4----------------------4-----------------------------|
E|---------------------------------------------------------------------------|

  *Then go back to Asus2*

e|------------0-----------------0------------------0-------------------------|
B|--------2------2----------2-------2----------2------2----------------------|
G|----2---2---------2---2---2----------2---2---2--------2--------------------|
D|----0-----------------0------------------0---------------0-----------------|
A|---------------------------------------------------------------------------|
E|---------------------------------------------------------------------------|

e|---------------------------------------------------------------------------|
B|--4h5------5--------4h5p4--------5---------4h5p4--------5----------5-------|
G|----6---6--------6----6------6----------6----6------6-----------6----------|
D|----6---------6-------6--------------6-------6--------------6--------------|
A|----4-----------------4----------------------4-----------------------------|
E|---------------------------------------------------------------------------|

*Then go back to Asus2*

e|------------0-----------------0------------------0-------------------------|
B|--------2------2----------2-------2----------2------2----------------------|
G|----2---2---------2---2---2----------2---2---2--------2--------------------|
D|----0-----------------0------------------0---------------0-----------------|
A|---------------------------------------------------------------------------|
E|---------------------------------------------------------------------------|

 Outro: Same as the Interlude Verse
        *But only do 1 hammer on on the 5 and then let it ring*

e|-------------5h7-----------------------------7-------------------7---------|
B|--------------------5--------------5-----5------------5------5-------5-----|
G|------------------------4-------4-----4-----------4------4--------------4--|
D|-----------------------------6---------------------------------------------|
A|---------------------------------------------------------------------------|
E|---------------------------------------------------------------------------|

e|---4h5---------------------------------5---------------------5-------------|
B|----------5----------------5-------5-------5-------5-------------5---------|
G|--------------4--------4-------4---------------4--------4-----------4------|
D|-------------------7---------------------------------------------------7---|
A|---------------------------------------------------------------------------|
E|---------------------------------------------------------------------------|

e|---2h4---------------------------4------------------4----------------------|
B|-----------5------------5-----5------5------5------------5-----------------|
G|--------------4------4-----4------------4-------4------------4-------------|
D|------------------6----------------------------------------------6---------|
A|---------------------------------------------------------------------------|
E|---------------------------------------------------------------------------|
      
 Let it ring                                        
e|---4h5---------------------------------------------------------------------|
B|---------------------------------------------------------------------------|
G|---------------------------------------------------------------------------|
D|---------------------------------------------------------------------------|
A|---------------------------------------------------------------------------|
E|---------------------------------------------------------------------------|



And that's pretty much what I got out of the song. I saw the video for the 
live version, i know didnt get the solo completely right,.... Im still
trying to figure out what Mike picks so if I ever get or someone else does
let me know.... other wise this how they play their version of the song
Very similar to the album version...... just the solo is different.





| /  slide up
| \  slide down
| h  hammer-on
| p  pull-off
| ~  vibrato
| +  harmonic
| x  Mute note
===============================================================================
Tap to rate this tab
# A B C D E F G H I J K L M N O P Q R S T U V W X Y Z