Song name
# A B C D E F G H I J K L M N O P Q R S T U V W X Y Z

Staind - Fill Me Up tab

Band: Staind
Song Name: Fill Me Up
Tab by: cisco21c

==From Low to High==

Elec. Gtrs. 1 & 2 tuned:| Elec. Gtr. 3 & 4 tuned down 1/2 step:
			|
Ab Eb Bb Db Gb Bb	| Eb Ab Db Gb Bb Eb


*Moderately = 104*

#INTRO
#Elec. Gtr. 1 (w/dist.) dbld. on repeat
  *
Db|-----------------------------------------------|-----------------------------------------------|
Gb|-----------------------------------------------|-----------------------------------------------|
Db|-----------------------------------------------|--------------------------------0--0--0--0-----|
Bb|-----------------------------------------------|--------------------------------10-10-10-10----|
Eb|--5h7--7--7--7--5----x----x--x--3-----3--3--3--|--5--5--5--7--7---x--x----x--x--10-10-10-10----|
Ab|--5h7--7--7--7--5----x----x--x--3-----3--3--3--|--5--5--5--7--7---x--x----x--x--9--9--9--9-----|

  * Music sounds a half step lower than written.

Db|-----------------------------------------------|-----------------------------------------------|
Gb|-----------------------------------------------|-----------------------------------------------|
Db|-----------------------------------------------|--------------------------------0--0--0--0-----|
Bb|-----------------------------------------------|--------------------------------10-10-10-10----|
Eb|--5h7--7--7--7--5----x----x--x--3--3--3--3--3--|--5--5--5--7--7---x--x----x--x--10-10-10-10----|
Ab|--5h7--7--7--7--5----x----x--x--3--3--3--3--3--|--5--5--5--7--7---x--x----x--x--9--9--9--9-----|

Db|-----------------------------------------------|
Gb|-----------------------------------------------|
Db|--------------------------------0--0--0--0-----|
Bb|--------------------------------10-10-10-10----|
Eb|--5--5--5--7--7---x--x----x--x--10-10-10-10----|
Ab|--5--5--5--7--7---x--x----x--x--9--9--9--9-----|

#Verse
#Elec. Gtr 1 (clean-tone) w/ Elec. Gtr 3 (clean-tone) on repeat
  *
Db|----------------------------------------------------------|-------------------------------------------------|
Gb|--0------0--0--0------0--0------0--0--0--0------0--0------|--0--0--0--0------0--0------0--0--0--0--0--0--0--|
Db|--9------9--9--9------9--9------9--9--9--9------9--9------|--9--9--9--9------9--0------0--0--0--0--0--0--0--|
Bb|--10h12--12-12-12p10--10-10h12--12-12-12-12p10--10-10h12--|--12-12-12-12p10--10-8------8--8--8--8--8--8--8--|
Eb|--12-----12-12-12-----12-12-----12-12-12-12-----12-12-----|--12-12-12-12-----12-8------8--8--8--8--8--8--8--|
Ab|----------------------------------------------------------|-------------------------------------------------|

Db|----------------------------------------------------------|--------------------------------------------------------|
Gb|--0-----0--0--0------0--0------0--0--0--0-------0--0------|--0--0--0--0------0--0------0---0---0---0---0---0---0---|
Db|--9-----9--9--9------9--9------9--9--9--9-------9--9------|--9--9--9--9------9--0------0---0---0---0---0---0---0---|
Bb|--10h12-12-12-12p10--10-10h12--12-12-12-12p10---10-10h12--|--12-12-12-12p10--10-15-----15--15--15--15--15--15--15--|
Eb|--12----12-12-12-----12-12-----12-12-12-12------12-12-----|--12-12-12-12-----12-15-----15--15--15--15--15--15--15--|
Ab|----------------------------------------------------------|--------------------------------------------------------|

#Fill in for verse on repeat
#Elec. Gtr. 3 (clean-tone)

Db|-------------------------------10--|-------------------------------14--|
Gb|--7-------------8------10------8---|--12---------------------------15--|
Db|---------9---------------------11--|----------14----12-----16------16--|
Bb|-----------------------------------|-----------------------------------|
Eb|-----------------------------------|-----------------------------------|
Ab|-----------------------------------|-----------------------------------|

Db|----------------------------------------10--|------------------------------10--|
Gb|--7-----------8------7-----------8------8---|----------------10----12----------|
Db|---------9-----------------9------------11--|--11----12------------------------|
Bb|--------------------------------------------|----------------------------------|
Eb|--------------------------------------------|----------------------------------|
Ab|--------------------------------------------|----------------------------------|

#Chorus
#Elec. Gtr. 1 w/ Elec. Gtr. 4

Db|--------------------------------------------|--------------------------------------------|
Gb|--0-------0-----0-----0-----0-----0-----0---|--0----0-----0-----0-----0-----0------------|
Db|--0-------0-----0-----0-----0-----0-----0---|--0----0-----0-----0-----0-----0--0---------|
Bb|--8-------8-----8-----8-----8-----8-----8---|--12---12----12----12----12----12-15--------|
Eb|--8-------8-----8-----8-----8-----8-----8---|--12---12----12----12----12----12-14--------|
Ab|--------------------------------------------|--------------------------------------------|
  |					       |					    |
Eb|--17---17-15-15-15-15-14-14-14-14-15-15-15--|--15---15-14-14-14-14-12-12-12-12-14-14-14--|
Bb|--------------------------------------------|--------------------------------------------|
Gb|--14---14-12-12-12-12-11-11-11-11-12-12-12--|--12---12-11-11-11-11-9--9--9--9--11-11-11--|
Db|--------------------------------------------|--------------------------------------------|
Ab|--------------------------------------------|--------------------------------------------|
Eb|--------------------------------------------|--------------------------------------------|

Db|---------------------------------------------|----------------------------------------------|
Gb|--0-----0------0-----0------0-----10---------|--0------0----0--0--0----0----0----0----------|
Db|--0-----0------0-----0------0-----10---------|--0------0----0--0--0----0----0----0----------|
Bb|--10----10-----10----10-----10----10--12-----|--8------8----8--8--8----8----8----8----------|
Eb|--10----10-----10----10-----10----10--12-----|--8------8----8--8--8----8----8----8----------|
Ab|---------------------------------------------|----------------------------------------------|

Db|--14----14-12-12-12-12-10-10-10-10-12-12-12--|--12-14-14-14-14-15-15-15-15-14-14-14-14-14-17-17-|\
Gb|---------------------------------------------|--------------------------------------------------|\ \
Db|--11----11-9--9--9--9--7--7--7--7--9--9--9---|--9--11-11-11-11-12-12-12-12-11-11-11-11-11-14-14-|\  |This fill in
Bb|---------------------------------------------|--------------------------------------------------|\  |is a bit off.
Eb|---------------------------------------------|--------------------------------------------------|\ /
Ab|---------------------------------------------|--------------------------------------------------|\

#INTERLUDE
#Elec. Gtr. 1 (w/dist.) dbld.

Db|-----------------------------------------------|-----------------------------------------------|
Gb|-----------------------------------------------|-----------------------------------------------|
Db|-----------------------------------------------|--------------------------------0--0--0--0-----|
Bb|-----------------------------------------------|--------------------------------10-10-10-10----|
Eb|--5h7--7--7--7--5----x----x--x--3-----3--3--3--|--5--5--5--7--7---x--x----x--x--10-10-10-10----|
Ab|--5h7--7--7--7--5----x----x--x--3-----3--3--3--|--5--5--5--7--7---x--x----x--x--9--9--9--9-----|

Db|-----------------------------------------------|-----------------------------------------------|
Gb|-----------------------------------------------|-----------------------------------------------|
Db|-----------------------------------------------|--------------------------------0--0--0--0-----|
Bb|-----------------------------------------------|--------------------------------10-10-10-10----|
Eb|--5h7--7--7--7--5----x----x--x--3--3--3--3--3--|--5--5--5--7--7---x--x----x--x--10-10-10-10----|
Ab|--5h7--7--7--7--5----x----x--x--3--3--3--3--3--|--5--5--5--7--7---x--x----x--x--9--9--9--9-----|

Db|-----------------------------------------------|
Gb|-----------------------------------------------|
Db|--------------------------------0--0--0--0-----|
Bb|--------------------------------10-10-10-10----|
Eb|--5--5--5--7--7---x--x----x--x--10-10-10-10----|
Ab|--5--5--5--7--7---x--x----x--x--9--9--9--9-----|

| /  slide up
| \  slide down
| h  hammer-on
| p  pull-off
| ~  vibrato
| +  harmonic
===============================================================================
Tap to rate this tab
# A B C D E F G H I J K L M N O P Q R S T U V W X Y Z