Song name
# A B C D E F G H I J K L M N O P Q R S T U V W X Y Z

Staind - This Is It tab

Help us improve GuitareTab! Take a short survey!
Song: This Is It
Artist: Staind

This is my very first tab, so please don't be too hard on me if i 
completely messed it up (although I'm pretty sure it's at least close).

This will sound a little off if you listen to the song, but this is only
guitar 1, because I was unable to figure out the verse for guitar 2. 
It would be greatly appreciated if someone could help me with the verse on 
guitar 2 so I can finalize this tab.

It should also be noted that as of now there are no tabs of this song up 
except for this one.

   Intro
eb|-----------------------------------------------------------------|
Bb|-----------------------------------------------------------------|
Gb|-----------------------------------------------------------------|
Db|-0-0-0--3-33-2h3/5-2--2--2/3-3-3p0-0-0-0-0--3-33-2h3/5-2--2--3-5-|
Ab|-0-0-0--3-33-2h3/5-2--2--2/3-3-3p0-0-0-0-0--3-33-2h3/5-2--2--3-5-|
Db|-0-0-0--3-33-2h3/5-2--2--2/3-3-3p0-0-0-0-0--3-33-2h3/5-2--2--3-5-|
                                .     .
eb|----------------------------------------------------------|
Bb|----------------------------------------------------------|
Gb|----------------------------------------------------------|
Db|-0-0-0--3-33-2h3/5-2--2--2/3-3-3p0-0-0-0-0--3-33-2h3/5-2~-|
Ab|-0-0-0--3-33-2h3/5-2--2--2/3-3-3p0-0-0-0-0--3-33-2h3/5-2~-|
Db|-0-0-0--3-33-2h3/5-2--2--2/3-3-3p0-0-0-0-0--3-33-2h3/5-2~-|
                                .     .

   Verse 1
eb|-----------------------------| You don't play this until about halfway
Bb|-----------------------------| through the verse. There may be more than
Gb|-----------------------------| this for guitar 1, but once again, I can't
Db|-0-0-0-0~------0-0-0-0~------| seem to figure it out.
Ab|-0-0-0-0~------0-0-0-0~------|
Db|-0-0-0-0~------0-0-0-0~------|
    . . .         . . . 

   Pre-Chorus
eb|-----------------------------------------------------------------|
Bb|-----------------------------------------------------------------|
Gb|-----------------------------------------------------------------|
Db|-0-0-0-0-0-0-0-0-0-0-0-0-0-0-0-0-0-0-0-0-0-0-0-0-0-0-0-0-0-0-0-0-|
Ab|-0-0-0-0-0-0-0-0-0-0-0-0-0-0-0-0-0-0-0-0-0-0-0-0-0-0-0-0-0-0-0-0-|
Db|-0-0-0-0-0-0-0-0-0-0-0-0-0-0-0-0-0-0-0-0-0-0-0-0-0-0-0-0-0-0-0-0-|
    . . . . . . . . . . . . . . . . . . . . . . . . . . . . . . . .

   Chorus
eb|-----------------------------------------------------------------|
Bb|-----------------------------------------------------------------|
Gb|-----------------------------------------------------------------|
Db|-0-0-0--3-33-2h3/5-2--2--2/3-3-3p0-0-0-0-0--3-33-2h3/5-2--2--3-5-|
Ab|-0-0-0--3-33-2h3/5-2--2--2/3-3-3p0-0-0-0-0--3-33-2h3/5-2--2--3-5-|
Db|-0-0-0--3-33-2h3/5-2--2--2/3-3-3p0-0-0-0-0--3-33-2h3/5-2--2--3-5-|
                                .     .
eb|----------------------------------------------------------|
Bb|----------------------------------------------------------|
Gb|----------------------------------------------------------|
Db|-0-0-0--3-33-2h3/5-2--2--2/3-3-3p0-0-0-0-0--3-33-2h3/5-2~-|
Ab|-0-0-0--3-33-2h3/5-2--2--2/3-3-3p0-0-0-0-0--3-33-2h3/5-2~-|
Db|-0-0-0--3-33-2h3/5-2--2--2/3-3-3p0-0-0-0-0--3-33-2h3/5-2~-|
                                .     .

   Verse 2
eb|-----------------------------| Once again, play this about halfway
Bb|-----------------------------| through the verse.
Gb|-----------------------------|
Db|-0-0-0-0~------0-0-0-0~------|
Ab|-0-0-0-0~------0-0-0-0~------|
Db|-0-0-0-0~------0-0-0-0~------|
    . . .         . . . 

   Pre-Chorus
eb|-----------------------------------------------------------------|
Bb|-----------------------------------------------------------------|
Gb|-----------------------------------------------------------------|
Db|-0-0-0-0-0-0-0-0-0-0-0-0-0-0-0-0-0-0-0-0-0-0-0-0-0-0-0-0-0-0-0-0-|
Ab|-0-0-0-0-0-0-0-0-0-0-0-0-0-0-0-0-0-0-0-0-0-0-0-0-0-0-0-0-0-0-0-0-|
Db|-0-0-0-0-0-0-0-0-0-0-0-0-0-0-0-0-0-0-0-0-0-0-0-0-0-0-0-0-0-0-0-0-|
    . . . . . . . . . . . . . . . . . . . . . . . . . . . . . . . .

   Chorus
eb|-----------------------------------------------------------------|
Bb|-----------------------------------------------------------------|
Gb|-----------------------------------------------------------------|
Db|-0-0-0--3-33-2h3/5-2--2--2/3-3-3p0-0-0-0-0--3-33-2h3/5-2--2--3-5-|
Ab|-0-0-0--3-33-2h3/5-2--2--2/3-3-3p0-0-0-0-0--3-33-2h3/5-2--2--3-5-|
Db|-0-0-0--3-33-2h3/5-2--2--2/3-3-3p0-0-0-0-0--3-33-2h3/5-2--2--3-5-|
                                .     .
eb|----------------------------------------------------------|
Bb|----------------------------------------------------------|
Gb|----------------------------------------------------------|
Db|-0-0-0--3-33-2h3/5-2--2--2/3-3-3p0-0-0-0-0--3-33-2h3/5-2~-|
Ab|-0-0-0--3-33-2h3/5-2--2--2/3-3-3p0-0-0-0-0--3-33-2h3/5-2~-|
Db|-0-0-0--3-33-2h3/5-2--2--2/3-3-3p0-0-0-0-0--3-33-2h3/5-2~-|
                                .     .

   Bridge
eb|--------------------------------------|
Bb|--------------------------------------|
Gb|--------------------------------------|
Db|-0~-3p0-0-0--0-2/3-0-0~-3p0-0-0-2~-3~-|<- /I am not sure about the last\
Ab|-0~-3p0-0-0--0-2/3-0-0~-3p0-0-0-2~-3~-|<-|two notes here, but it's the  |
Db|-0~-3p0-0-0--0-2/3-0-0~-3p0-0-0-2~-3~-|<- \best I could come up with.  /
           . .  .     .        . . 
eb|---------------------------------|
Bb|---------------------------------|
Gb|---------------------------------|
Db|-0~-3p0-0-0--0-2/3-0-0~-3p0-0h1~-|
Ab|-0~-3p0-0-0--0-2/3-0-0~-3p0-0h1~-|
Db|-0~-3p0-0-0--0-2/3-0-0~-3p0-0h1~-|
           . .  .     .        
eb|--------------------------------------|
Bb|--------------------------------------|
Gb|--------------------------------------|
Db|-0~-3p0-0-0--0-2/3-0-0~-3p0-0-0-2~-3~-|
Ab|-0~-3p0-0-0--0-2/3-0-0~-3p0-0-0-2~-3~-|
Db|-0~-3p0-0-0--0-2/3-0-0~-3p0-0-0-2~-3~-|
           . .  .     .        . . 
eb|---------------------------------|
Bb|---------------------------------|
Gb|---------------------------------|
Db|-0~-3p0-0-0--0-2/3-0-0~-3p0-0h1~-|
Ab|-0~-3p0-0-0--0-2/3-0-0~-3p0-0h1~-|
Db|-0~-3p0-0-0--0-2/3-0-0~-3p0-0h1~-|
           . .  .     . 

   Pre-Chorus
eb|-----------------------------------------------------------------|
Bb|-----------------------------------------------------------------|
Gb|-----------------------------------------------------------------|
Db|-0-0-0-0-0-0-0-0-0-0-0-0-0-0-0-0-0-0-0-0-0-0-0-0-0-0-0-0-0-0-0-0-|
Ab|-0-0-0-0-0-0-0-0-0-0-0-0-0-0-0-0-0-0-0-0-0-0-0-0-0-0-0-0-0-0-0-0-|
Db|-0-0-0-0-0-0-0-0-0-0-0-0-0-0-0-0-0-0-0-0-0-0-0-0-0-0-0-0-0-0-0-0-|
    . . . . . . . . . . . . . . . . . . . . . . . . . . . . . . . .

   Chorus
eb|-----------------------------------------------------------------|
Bb|-----------------------------------------------------------------|
Gb|-----------------------------------------------------------------|
Db|-0-0-0--3-33-2h3/5-2--2--2/3-3-3p0-0-0-0-0--3-33-2h3/5-2--2--3-5-|
Ab|-0-0-0--3-33-2h3/5-2--2--2/3-3-3p0-0-0-0-0--3-33-2h3/5-2--2--3-5-|
Db|-0-0-0--3-33-2h3/5-2--2--2/3-3-3p0-0-0-0-0--3-33-2h3/5-2--2--3-5-|
                                .     .
eb|----------------------------------------------------------|
Bb|----------------------------------------------------------|
Gb|----------------------------------------------------------|
Db|-0-0-0--3-33-2h3/5-2--2--2/3-3-3p0-0-0-0-0--3-33-2h3/5-2~-|
Ab|-0-0-0--3-33-2h3/5-2--2--2/3-3-3p0-0-0-0-0--3-33-2h3/5-2~-|
Db|-0-0-0--3-33-2h3/5-2--2--2/3-3-3p0-0-0-0-0--3-33-2h3/5-2~-|
                                .     .

   Outro
eb|------------------------------------| The double dashs (--) represent the
Bb|------------------------------------| pause at this part. Otherwise, the
Gb|-9-9-9-9-9\7-7-7--10-10-10-10\9-9-9-| whole thing is played as quickly
Db|-x-x-x-x-x-x-x-x---x--x--x--x-x-x-x-| and smoothly as you can.
Ab|-7-7-7-7-7\5-5-5---8--8--8--8\7-7-7-|
Db|------------------------------------|

eb|-----------------------------------------------|
Bb|-----------------------------------------------|
Gb|-12-12-12-12-12\10-10-10--14-14-14-14\12-12-12-|
Db|--x--x--x--x--x--x--x--x---x--x--x--x--x--x--x-|
Ab|-10-10-10-10-10\-8--8--8--12-12-12-12\10-10-10-|
Db|-----------------------------------------------|

eb|-----------------------------------------------|
Bb|-----------------------------------------------|
Gb|-15-15-15-15-15\14-14-14--17-17-17-17\15-15-15-|
Db|--x--x--x--x--x--x--x--x---x--x--x--x--x--x--x-|
Ab|-13-13-13-13-13\12-12-12--15-15-15-15\13-13-13-|
Db|-----------------------------------------------|

eb|-------------------------|
Bb|-------------------------|
Gb|-17-17-17-17-17-17-17-17-|
Db|--x--x--x--x--x--x--x--x-|
Ab|-15-15-15-15-15-15-15-15-|
Db|-------------------------|

eb|------------------------------------|
Bb|------------------------------------|
Gb|-9-9-9-9-9\7-7-7--10-10-10-10\9-9-9-|
Db|-x-x-x-x-x-x-x-x---x--x--x--x-x-x-x-|
Ab|-7-7-7-7-7\5-5-5---8--8--8--8\7-7-7-|
Db|------------------------------------|

eb|-----------------------------------------------|
Bb|-----------------------------------------------|
Gb|-12-12-12-12-12\10-10-10--14-14-14-14\12-12-12-|
Db|--x--x--x--x--x--x--x--x---x--x--x--x--x--x--x-|
Ab|-10-10-10-10-10\-8--8--8--12-12-12-12\10-10-10-|
Db|-----------------------------------------------|

eb|-----------------------------------------------|
Bb|-----------------------------------------------|
Gb|-15-15-15-15-15\14-14-14--17-17-17-17\15-15-15-|
Db|--x--x--x--x--x--x--x--x---x--x--x--x--x--x--x-|
Ab|-13-13-13-13-13\12-12-12--15-15-15-15\13-13-13-|
Db|-----------------------------------------------|

eb|-----------------------------|
Bb|-----------------------------|
Gb|-17-17-17-17-17-14/15-17-19~-|
Db|--x--x--x--x--x--x--x--x--x~-|
Ab|-15-15-15-15-15-12/13-15-17~-|
Db|-----------------------------|

Key (how I used the symbols):
p = pull off
h = hammer on
/ = slide up
\ = slide down
x = mute
. = palm mute
~ = hold note
Related for This Is It tab