Song name
# A B C D E F G H I J K L M N O P Q R S T U V W X Y Z

Staind - Pardon Me tab

intro x

eb|-----------------------------------------------------|
Hb|-------7-----------7-----10-----8-----7-----8--------|
Gb|---9-----9-----9-----9-----9-----9------9------9-----|
Db|-----9-----9-----9-----9-----9-----9------9------9---|
Ab|-7-----------7---------------------------------------|
Eb|-----------------------------------------------------|


eb|-------5-----------5-----5------------------------|
Hb|-------------------------------8-----7-----8------|
Gb|---7-----7-----7-----7-----7-----7-----7-----7----|
Db|-----7-----7-----7-----7-----7-----7-----7-----7--|
Ab|-5-----------5------------------------------------|
Eb|--------------------------------------------------|


eb|--------------------------------------------------|
Hb|----------13------------------12------------------|
Gb|----9---------9--------9---------9----------------|
Db|-------10--------10--------10------10-------------|
Ab|-10-----------------10----------------------------|
Eb|--------------------------------------------------|

eb|--------------------------------------------------|
Bb|-----------10-----------------8-------------------|
Gb|-----8---------8--------8--------8----------------|
Db|--------9---------9--------9--------9-------------|
Ab|--9------------------9----------------------------|
Eb|--------------------------------------------------|


eb|--------------------------------------------------|
Hb|-------7-----------7-----------7------------------|
Gb|---9-----9-----9-----9-----9-----9----------------|
Db|-----9-----9-----9-----9-----9-----9--------------|
Ab|-7-----------7-----------7-----------7-let-ring---|
Eb|-------------------------------------0-let-ring---|                       


eb|---0-----------------7-------------------------------|
Bb|-----0-----------------7-----------------------------|
Gb|-------0-----------------9---------------------------|
Db|---------2------OR---------9-------------------------|
Ab|-----------2-----------------7-----------------------|
Eb|-------------0-----------------0---------------------|
 
    intro xx                                              
eb|-----------------------------------------------------|
Hb|-------7-----------7-----10-----8-----7-----8--------|
Gb|---9-----9-----9-----9-----7-----7-----7-----7-------|
Db|-----9-----9-----9-----9-----9-----9-----9-----9-----|
Ab|-7-----------7---------------------------------------|
Eb|-----------------------------------------------------|
     

eb|-------5-----------5-----5------------------------|
Hb|-------------------------------8-----7-----8------|
Gb|---7-----7-----7-----7-----7-----7-----7-----7----|
Db|-----7-----7-----7-----7-----7-----7-----7-----7--|
Ab|-5-----------5------------------------------------|
Eb|--------------------------------------------------|


eb|--------------------------------------------------|
Hb|----------13------------------12------------------|
Gb|----9---------9--------9---------9----------------|
Db|-------10--------10--------10------10-------------|
Ab|-10-----------------10----------------------------|
Eb|--------------------------------------------------|

eb|--------------------------------------------------|
Bb|-----------10-----------------8-------------------|
Gb|-----8---------8--------8--------8----------------|
Db|--------9---------9--------9--------9-------------|
Ab|--9------------------9----------------------------|
Eb|--------------------------------------------------| repeat itro xx
                                                     
                                                                
eb|--------------------------------------------------|
Hb|-------7-----------7-----------7------------7-----|
Gb|---9-----9-----9-----9-----9-----9------9-----9---|
Db|-----9-----9-----9-----9-----9-----9------9-----9-|
Ab|-7-----------7-----------7------------7-----------|
Eb|--------------------------------------------------| end of intro                       

chorse

eb|--------------------------------------------------|
Hb|----------13------------------12------------------|
Gb|----9---------9--------9---------9----------------|
Db|-------10----------------10-----------------------|
Ab|-10-----------------10----------------------------|
Eb|--------------------------------------------------|


eb|---------------------------------------------------|
Bb|--------------10--------------8--------------------|
Gb|--------8---------8-----8--------8-----------------|
Db|-----------9---------------9--------9--------------|
Ab|-----9---------------9-----------------------------|
Eb|---------------------------------------------------|

eb|---------------------------------------------------|
Bb|------------7-------------7------------------------|
Gb|------9--------9------9-----9----------------------|
Db|---------9-------9------9-----9--------------------|
Ab|---7---------------7------------7------------------|
Eb|---------------------------------------------------|

eb|-----------5--------------5------------------------|
Bb|---------------------------------------------------|
Gb|-----7--------7-----7--------7---------------------|
Db|--------7--------------7---------------------------|
Ab|---5-------------5---------------------------------|
Eb|---------------------------------------------------|repeat chores 
 
eb|--------------------------------------------------|
Hb|----------13------------------12------------------|
Gb|----9---------9--------9---------9----------------|
Db|-------10----------------10-----------------------|
Ab|-10-----------------10----------------------------|
Eb|--------------------------------------------------|


eb|---------------------------------------------------|
Bb|--------------10----8----7-------------------------|
Gb|--------8------------------------------------------|
Db|-----------9---------------------------------------|
Ab|-----9---------------------------------------------|
Eb|---------------------------------------------------|

eb|---0-----------------7-------------------------------|
Bb|-----0-----------------7-----------------------------|
Gb|-------0-----------------9---------------------------|
Db|---------2------OR---------9-------------------------|
Ab|-----------2-----------------7-----------------------|
Eb|-------------0-----------------0---------------------|

repeat song
Tap to rate this tab
# A B C D E F G H I J K L M N O P Q R S T U V W X Y Z