Song name
# A B C D E F G H I J K L M N O P Q R S T U V W X Y Z

Staind - Now tab

-----STAIND - NOW-----

Guitar 1 (dist.) (D-A-D-G-B-E) Capo I
Guitar 2 (dist.) (C-G-C-F-A-D)
Guitar 3 (slight dist.) (C-G-C-F-A-D)
Guitar 4 (dist. and wah-wah) (C-G-C-F-A-D)

Guitar 1                            play 5x
------|--11-1-1-8-1-1-11-1-1-8-1-1-11------|
------|O----------------------------------O|
-8-10-|------------------------------8-10--|
------|------------------------------------|
------|O----------------------------------O|
------|------------------------------------|

-11-1-1-8-1-1-9-1-1-8-1-1-8-----|
--------------------------------|
---------------------------8-10-|
--------------------------------|
--------------------------------|
--------------------------------|

-11-1-1-8-1-1-11-1-1-8-1-1-11-----|
----------------------------------|
-----------------------------8-10-|
----------------------------------|
----------------------------------|
----------------------------------|

-6-1-1-4-1-1-9-1-1-8-1-1-8-|
---------------------------|
---------------------------|
---------------------------|
---------------------------|
---------------------------|

Guitar 2
Intro/Pre-Chorus/Interlude (between Chorus and Verse)/Solo Rhythm
---------|---------|---------|---------|
---------|---------|---------|---------|
---------|---------|---------|---------|
-5-------|-1-------|-8-------|-3-------|
-5-------|-1-------|-8-------|-3-------|
-5-------|-1-------|-8-------|-3-------|

Guitar 3
Verse
-----|--3---------|---------|----------|--------------|
-----|O---6-------|---------|-4--3-----|----3--------O|
-2/3-|---3--------|---------|----------|-5-------2/3--|
-----|------------|-------5-|---5----5-|---5----------|
-----|O-----------|---------|----------|-------------O|
-----|------------|---------|----------|--------------|

Guitar 2
Chorus (experement with weird rhythms and palm mutes)
---------|---------|---------|-----------|
---------|---------|---------|-----------|
---------|---------|---------|-----------|
-5-------|-0-------|-1-------|-8---10----|
-5-------|-0-------|-1-------|-8---10----|
-5-------|-0-------|-1-------|-8---10----|

Guitar 4
Solo
-----------------|---------------|
-----------------|-------------8-|
-10gb.5----------|------------7--|
-10gb.5----------|---------------|
-----------------|---------------|
-----------------|---------------|

-----------------------|-10p6------------------------------|
-10b.5r-8-10-10b.5r-10-|-----8-8-11p8----------------------|
-----------------------|-------------10-7-10p7-------------|
-----------------------|----------------------8-7-10p7-----|
-----------------------|------------------------------10-8-|
-----------------------|-----------------------------------|

-------------|------------------|---15-17-17b.5-17-18-20-|
-------------|---------11-10-11-|-15---------------------|
-----------7-|-12-10-12---------|------------------------|
----------8--|------------------|------------------------|
-10-8-8-10---|------------------|------------------------|
-------------|------------------|------------------------|

-22-20-18\-18-17-15-20-18-16--------------------
----------------------------20-18-16------------
------------------------------------18-17-15-14-
------------------------------------------------
------------------------------------------------
------------------------------------------------

--------------------------------|-15----------|-----------\-|
-----------------------15-16-18-|-------------|-------------|
---------------14-15-14---------|-------------|-------------|
-17-15-14-15-17-----------------|-------------|-------------|
--------------------------------|-------------|-------------|
--------------------------------|-------------|-------------|

Guitar 2
Post-Solo/Outro                    play 3x
|------------------|----------------------|
|O-----------------|---------------------O|
|------------------|----------------------|
|--5-1-5-1-5-------|-5-1-5----------------|
|O-5-1-5-1-5---5-5-|-5-1-5-1-1---1-1---1-O|
|--5-1-5-1-5---5-5-|-5-1-5-1-1---1-1---1--|
               . .         . .   . .   .

-----------------|-----------|
-----------------|-----------|
-----------------|-----------|
-5-1-5-1-5-------|-1-1-x-3-3-|
-5-1-5-1-5---5-5-|-1-1-x-3-3-|
-5-1-5-1-5---5-5-|-1-1-x-3-3-|
             . .

---------------|---------------|
---------------|---------------|
---------------|---------------|
---------5-----|---------0-----|
-5-5---5-5-----|-0-0---0-0-----|
-5-5---5-5-----|-0-0---0-0-----|
 . .   .         . .   .

---------------|---------------------|
---------------|---------------------|
---------------|---------------------|
---------1-----|---------------------|
-1-1-1-1-1-----|-8-8-8-8-10-10-10-10-|
-1-1-1-1-1-----|-8-8-8-8-10-10-10-10-|
 . . . .         . . . .  .  .  .  .

LYRICS:
When you come to a fork in the road,
You can almost taste it.
Never knowing which way to go,
It's not been tested.

All alone you try to take it,
To fake it.
And is the road less traveled taken,
Or forsaken?

Now,
It's up to you,
The path that you choose.
Gotta do something different now.
It's all the same,
No one to blame.
Gotta do something different now.

So you head down the road that you chose,
Just keep pushing forward.
And the window is trying to close,
Just to shut you out.

And all alone you try to take it,
To fake it.
And is the road less traveled taken,
Or forsaken?

Now,
It's up to you,
The path that you choose.
Gotta do something different now.
It's all the same,
No one to blame.
Gotta do something different...

Something different...

It's up to you,
The path that you choose.
Gotta do something different now.
It's all the same,
No one to blame.
Gotta do something different now.
It's up to you,
The path that you choose.
Gotta do something different,
Gotta do something different now.
Tap to rate this tab
# A B C D E F G H I J K L M N O P Q R S T U V W X Y Z