Song name
# A B C D E F G H I J K L M N O P Q R S T U V W X Y Z

Staind - Suffocate tab

This song is soooo easy..:D

~=ring out
h=hammeron
p=pulloff
PA=pause
x=muted note (as in hit the string while just barely having ur hand touch the fretboard)

--------------------------------------|
--------------------------------------|
--------------------------------------|
--------------------------------------|Do this twice
-2-x-2-x-2-x-2------------------------|
-2-x-2-x-2-x-2------------------------|

--------------------------------------|
--------------------------------------|
--------------------------------------|
--------------------------------------|Do this 4 times
-2~-0-3h5p3-2-0-----------------------|
-2~-0-3h5p3-2-0-----------------------|


Verse

--------------------------------------|
--------------------------------------|
--------------------------------------|
--------------------------------------|
-2-PA-2-PA-2--------------------------|
-2-PA-2-PA-2--------------------------|

Chorus

--------------------------------------|
--------------------------------------|
--------------------------------------|
--------------------------------------|
-2-x-x-x-2-x-x-2-2--------------------|
-2-x-x-x-2-x-x-2-2--------------------|

--------------------------------------|
--------------------------------------|
--------------------------------------|
--------------------------------------|
-3-x-x-x-3-x-x-3-3--------------------|
-3-x-x-x-3-x-x-3-3--------------------|

Bridge

--------------------------------------|
--------------------------------------|
--------------------------------------|
--------------------------------------|Just do this twice
-2-x-x-x-2-x-x-2-2--------------------|
-2-x-x-x-2-x-x-2-2--------------------|

then..

--------------------------------------|
--------------------------------------|
--------------------------------------|
-5~-5~--------------------------------|
-3~-3~--------------------------------|
--------------------------------------|

then when the bridge is about done..

--------------------------------------|
--------------------------------------|
--------------------------------------|
-5~-2~--------------------------------|
-3~-0~--------------------------------|
--------------------------------------|
"Heal me.."
Tap to rate this tab
 
# A B C D E F G H I J K L M N O P Q R S T U V W X Y Z