Song name
# A B C D E F G H I J K L M N O P Q R S T U V W X Y Z

Stars - Personal tab

----------------------------------------------------------------------------
			     Personal - Stars
----------------------------------------------------------------------------
Tabbed by: madison wikston
Email: madness_225@hotmail.com

Tuning: normal; capo on 1st fret


Most of the song: (i usually do a palm mute for the first note of each phrase here [1st 
6th note, 11th note, 16th note])
e|-----------------------------------------------------------------|
B|-----0-------------0-----------0------------0--------------------|
G|-------0-2--0-------0-2--0------0-2--0--------2/4----------------|
D|--2--------------------------------------------------------------|
A|----------------------------3------------------------------------|
E|----------------3------------------------2-----------------------|

when amy goes "i never got your name, i assume you're 33...", and in the background 
(i do this palm muted or without a pick)
e|-----------------------------------------------------------------|
B|-0---0---0---0---0---0---0---0---1---1---1---1-------------------|
G|-0---0---0---0---0---0---0---0---0---0---0---0----2---2---2---2--|
D|---2---2---2---2----------------------------------0---0---0---0--|
A|-----------------------------------3---3---3---3-----------------|
E|-------------------3---3---3---3--------------------2---2---2---2|

Solo:
e|--2--3--5/7--7--0------------------------------------------------|
B|-------------------3--1--0-0-1-0-----------0-1-3-1--0------------|
G|---------------------------------0-------0-----------------------| X2
D|-------------------------------------2---------------------------|
A|-----------------------------------------------------------------|
E|-----------------------------------------------------------------|

:)
Tap to rate this tab
# A B C D E F G H I J K L M N O P Q R S T U V W X Y Z